  0
SECTION
  2
HEADER
  9
$ACADVER
  1
AC1014
  9
$HANDSEED
  5
FFFF
  9
$MEASUREMENT
 70
     1
  0
ENDSEC
  0
SECTION
  2
TABLES
  0
TABLE
  2
VPORT
  5
8
330
0
100
AcDbSymbolTable
 70
     4
  0
VPORT
  5
2E
330
8
100
AcDbSymbolTableRecord
100
AcDbViewportTableRecord
  2
*ACTIVE
 70
     0
 10
0.0
 20
0.0
 11
1.0
 21
1.0
 12
210.0
 22
148.5
 13
0.0
 23
0.0
 14
10.0
 24
10.0
 15
10.0
 25
10.0
 16
0.0
 26
0.0
 36
1.0
 17
0.0
 27
0.0
 37
0.0
 40
341.0
 41
1.24
 42
50.0
 43
0.0
 44
0.0
 50
0.0
 51
0.0
 71
     0
 72
   100
 73
     1
 74
     3
 75
     0
 76
     0
 77
     0
 78
     0
  0
ENDTAB
  0
TABLE
  2
LTYPE
  5
5
330
0
100
AcDbSymbolTable
 70
     1
  0
LTYPE
  5
14
330
5
100
AcDbSymbolTableRecord
100
AcDbLinetypeTableRecord
  2
BYBLOCK
 70
     0
  3

 72
    65
 73
     0
 40
0.0
  0
LTYPE
  5
15
330
5
100
AcDbSymbolTableRecord
100
AcDbLinetypeTableRecord
  2
BYLAYER
 70
     0
  3

 72
    65
 73
     0
 40
0.0
  0
LTYPE
  5
16
330
5
100
AcDbSymbolTableRecord
100
AcDbLinetypeTableRecord
  2
CONTINUOUS
 70
     0
  3
Solid line
 72
    65
 73
     0
 40
0.0
  0
ENDTAB
  0
TABLE
  2
LAYER
  5
2
100
AcDbSymbolTable
 70
2
  0
LAYER
  5
50
100
AcDbSymbolTableRecord
100
AcDbLayerTableRecord
  2
0
 70
0
  6
CONTINUOUS
  0
LAYER
  5
51
100
AcDbSymbolTableRecord
100
AcDbLayerTableRecord
  2
Layer_1
 70
0
  6
CONTINUOUS
  0
ENDTAB
  0
TABLE
  2
STYLE
  5
3
330
0
100
AcDbSymbolTable
 70
     1
  0
STYLE
  5
11
330
3
100
AcDbSymbolTableRecord
100
AcDbTextStyleTableRecord
  2
STANDARD
 70
     0
 40
0.0
 41
1.0
 50
0.0
 71
     0
 42
2.5
  3
txt
  4

  0
ENDTAB
  0
TABLE
  2
VIEW
  5
6
330
0
100
AcDbSymbolTable
 70
     0
  0
ENDTAB
  0
TABLE
  2
UCS
  5
7
330
0
100
AcDbSymbolTable
 70
     0
  0
ENDTAB
  0
TABLE
  2
APPID
  5
9
330
0
100
AcDbSymbolTable
 70
     2
  0
APPID
  5
12
330
9
100
AcDbSymbolTableRecord
100
AcDbRegAppTableRecord
  2
ACAD
 70
     0
  0
ENDTAB
  0
TABLE
  2
DIMSTYLE
  5
A
330
0
100
AcDbSymbolTable
 70
     1
  0
DIMSTYLE
105
27
330
A
100
AcDbSymbolTableRecord
100
AcDbDimStyleTableRecord
  2
ISO-25
 70
     0
  3

  4

  5

  6

  7

 40
1.0
 41
2.5
 42
0.625
 43
3.75
 44
1.25
 45
0.0
 46
0.0
 47
0.0
 48
0.0
140
2.5
141
2.5
142
0.0
143
0.03937007874016
144
1.0
145
0.0
146
1.0
147
0.625
 71
     0
 72
     0
 73
     0
 74
     0
 75
     0
 76
     0
 77
     1
 78
     8
170
     0
171
     3
172
     1
173
     0
174
     0
175
     0
176
     0
177
     0
178
     0
270
     2
271
     2
272
     2
273
     2
274
     3
340
11
275
     0
280
     0
281
     0
282
     0
283
     0
284
     8
285
     0
286
     0
287
     3
288
     0
  0
ENDTAB
  0
TABLE
  2
BLOCK_RECORD
  5
1
330
0
100
AcDbSymbolTable
 70
     1
  0
BLOCK_RECORD
  5
1F
330
1
100
AcDbSymbolTableRecord
100
AcDbBlockTableRecord
  2
*MODEL_SPACE
  0
BLOCK_RECORD
  5
1B
330
1
100
AcDbSymbolTableRecord
100
AcDbBlockTableRecord
  2
*PAPER_SPACE
  0
ENDTAB
  0
ENDSEC
  0
SECTION
  2
BLOCKS
  0
BLOCK
  5
20
330
1F
100
AcDbEntity
  8
0
100
AcDbBlockBegin
  2
*MODEL_SPACE
 70
     0
 10
0.0
 20
0.0
 30
0.0
  3
*MODEL_SPACE
  1

  0
ENDBLK
  5
21
330
1F
100
AcDbEntity
  8
0
100
AcDbBlockEnd
  0
BLOCK
  5
1C
330
1B
100
AcDbEntity
 67
     1
  8
0
100
AcDbBlockBegin
  2
*PAPER_SPACE
  1

  0
ENDBLK
  5
1D
330
1B
100
AcDbEntity
 67
     1
  8
0
100
AcDbBlockEnd
  0
ENDSEC
  0
SECTION
  2
ENTITIES
  0
SPLINE
  5
100
100
AcDbEntity
  8
Layer_1
 62
1
100
AcDbSpline
 70
8
 71
3
 72
8
 73
4
 74
0
 40
0
 40
0
 40
0
 40
0
 40
1
 40
1
 40
1
 40
1
 10
245.147479
 20
39.141112
 30
0.0
 10
246.252294
 20
39.141112
 30
0.0
 10
247.141097
 20
40.038635
 30
0.0
 10
247.141097
 20
41.143309
 30
0.0
  0
SPLINE
  5
101
100
AcDbEntity
  8
Layer_1
 62
1
100
AcDbSpline
 70
8
 71
3
 72
8
 73
4
 74
0
 40
0
 40
0
 40
0
 40
0
 40
1
 40
1
 40
1
 40
1
 10
247.141097
 20
45.147732
 30
0.0
 10
247.141097
 20
46.252435
 30
0.0
 10
246.252294
 20
47.141124
 30
0.0
 10
245.147479
 20
47.141124
 30
0.0
  0
LWPOLYLINE
  5
102
100
AcDbEntity
  8
Layer_1
 62
1
100
AcDbPolyline
 90
2
 70
0
 10
247.141097
 20
41.143309
 30
0.0
 10
247.141097
 20
45.147732
 30
0.0
  0
SPLINE
  5
103
100
AcDbEntity
  8
Layer_1
 62
1
100
AcDbSpline
 70
8
 71
3
 72
8
 73
4
 74
0
 40
0
 40
0
 40
0
 40
0
 40
1
 40
1
 40
1
 40
1
 10
202.134724
 20
47.141124
 30
0.0
 10
201.029937
 20
47.141124
 30
0.0
 10
200.141106
 20
46.252407
 30
0.0
 10
200.141106
 20
45.147732
 30
0.0
  0
LWPOLYLINE
  5
104
100
AcDbEntity
  8
Layer_1
 62
1
100
AcDbPolyline
 90
2
 70
0
 10
245.147479
 20
47.141124
 30
0.0
 10
202.134724
 20
47.141124
 30
0.0
  0
SPLINE
  5
105
100
AcDbEntity
  8
Layer_1
 62
1
100
AcDbSpline
 70
8
 71
3
 72
8
 73
4
 74
0
 40
0
 40
0
 40
0
 40
0
 40
1
 40
1
 40
1
 40
1
 10
200.141106
 20
41.143309
 30
0.0
 10
200.141106
 20
40.038607
 30
0.0
 10
201.029937
 20
39.141112
 30
0.0
 10
202.134724
 20
39.141112
 30
0.0
  0
LWPOLYLINE
  5
106
100
AcDbEntity
  8
Layer_1
 62
1
100
AcDbPolyline
 90
2
 70
0
 10
200.141106
 20
45.147732
 30
0.0
 10
200.141106
 20
41.143309
 30
0.0
  0
SPLINE
  5
107
100
AcDbEntity
  8
Layer_1
 62
7
100
AcDbSpline
 70
8
 71
3
 72
8
 73
4
 74
0
 40
0
 40
0
 40
0
 40
0
 40
1
 40
1
 40
1
 40
1
 10
243.143447
 20
41.637339
 30
0.0
 10
242.314617
 20
41.637339
 30
0.0
 10
241.644142
 20
42.307843
 30
0.0
 10
241.644142
 20
43.136645
 30
0.0
  0
SPLINE
  5
108
100
AcDbEntity
  8
Layer_1
 62
7
100
AcDbSpline
 70
8
 71
3
 72
8
 73
4
 74
0
 40
0
 40
0
 40
0
 40
0
 40
1
 40
1
 40
1
 40
1
 10
241.644142
 20
43.136645
 30
0.0
 10
241.644142
 20
43.965447
 30
0.0
 10
242.314617
 20
44.635951
 30
0.0
 10
243.143447
 20
44.635951
 30
0.0
  0
SPLINE
  5
109
100
AcDbEntity
  8
Layer_1
 62
7
100
AcDbSpline
 70
8
 71
3
 72
8
 73
4
 74
0
 40
0
 40
0
 40
0
 40
0
 40
1
 40
1
 40
1
 40
1
 10
243.143447
 20
44.635951
 30
0.0
 10
243.972249
 20
44.635951
 30
0.0
 10
244.642753
 20
43.965447
 30
0.0
 10
244.642753
 20
43.136645
 30
0.0
  0
SPLINE
  5
10a
100
AcDbEntity
  8
Layer_1
 62
7
100
AcDbSpline
 70
8
 71
3
 72
8
 73
4
 74
0
 40
0
 40
0
 40
0
 40
0
 40
1
 40
1
 40
1
 40
1
 10
244.642753
 20
43.136645
 30
0.0
 10
244.642753
 20
42.307843
 30
0.0
 10
243.972249
 20
41.637339
 30
0.0
 10
243.143447
 20
41.637339
 30
0.0
  0
LWPOLYLINE
  5
10b
100
AcDbEntity
  8
Layer_1
 62
1
100
AcDbPolyline
 90
3
 70
0
 10
202.134724
 20
39.141112
 30
0.0
 10
245.147479
 20
39.141112
 30
0.0
 10
245.147479
 20
39.141112
 30
0.0
  0
SPLINE
  5
10c
100
AcDbEntity
  8
Layer_1
 62
7
100
AcDbSpline
 70
8
 71
3
 72
8
 73
4
 74
0
 40
0
 40
0
 40
0
 40
0
 40
1
 40
1
 40
1
 40
1
 10
204.143864
 20
41.637339
 30
0.0
 10
203.315034
 20
41.637339
 30
0.0
 10
202.644558
 20
42.307843
 30
0.0
 10
202.644558
 20
43.136645
 30
0.0
  0
SPLINE
  5
10d
100
AcDbEntity
  8
Layer_1
 62
7
100
AcDbSpline
 70
8
 71
3
 72
8
 73
4
 74
0
 40
0
 40
0
 40
0
 40
0
 40
1
 40
1
 40
1
 40
1
 10
202.644558
 20
43.136645
 30
0.0
 10
202.644558
 20
43.965447
 30
0.0
 10
203.315034
 20
44.635951
 30
0.0
 10
204.143864
 20
44.635951
 30
0.0
  0
SPLINE
  5
10e
100
AcDbEntity
  8
Layer_1
 62
7
100
AcDbSpline
 70
8
 71
3
 72
8
 73
4
 74
0
 40
0
 40
0
 40
0
 40
0
 40
1
 40
1
 40
1
 40
1
 10
204.143864
 20
44.635951
 30
0.0
 10
204.972638
 20
44.635951
 30
0.0
 10
205.643170
 20
43.965447
 30
0.0
 10
205.643170
 20
43.136645
 30
0.0
  0
SPLINE
  5
10f
100
AcDbEntity
  8
Layer_1
 62
7
100
AcDbSpline
 70
8
 71
3
 72
8
 73
4
 74
0
 40
0
 40
0
 40
0
 40
0
 40
1
 40
1
 40
1
 40
1
 10
205.643170
 20
43.136645
 30
0.0
 10
205.643170
 20
42.307843
 30
0.0
 10
204.972638
 20
41.637339
 30
0.0
 10
204.143864
 20
41.637339
 30
0.0
  0
LWPOLYLINE
  5
110
100
AcDbEntity
  8
Layer_1
 62
7
100
AcDbPolyline
 90
2
 70
0
 10
243.143447
 20
41.637339
 30
0.0
 10
243.143447
 20
41.637339
 30
0.0
  0
SPLINE
  5
111
100
AcDbEntity
  8
Layer_1
 62
7
100
AcDbSpline
 70
8
 71
3
 72
8
 73
4
 74
0
 40
0
 40
0
 40
0
 40
0
 40
1
 40
1
 40
1
 40
1
 10
206.146428
 20
188.651272
 30
0.0
 10
206.975230
 20
188.651272
 30
0.0
 10
207.645734
 20
187.980769
 30
0.0
 10
207.645734
 20
187.151967
 30
0.0
  0
SPLINE
  5
112
100
AcDbEntity
  8
Layer_1
 62
7
100
AcDbSpline
 70
8
 71
3
 72
8
 73
4
 74
0
 40
0
 40
0
 40
0
 40
0
 40
1
 40
1
 40
1
 40
1
 10
207.645734
 20
187.151967
 30
0.0
 10
207.645734
 20
186.323137
 30
0.0
 10
206.975230
 20
185.652661
 30
0.0
 10
206.146428
 20
185.652661
 30
0.0
  0
SPLINE
  5
113
100
AcDbEntity
  8
Layer_1
 62
7
100
AcDbSpline
 70
8
 71
3
 72
8
 73
4
 74
0
 40
0
 40
0
 40
0
 40
0
 40
1
 40
1
 40
1
 40
1
 10
206.146428
 20
185.652661
 30
0.0
 10
205.317598
 20
185.652661
 30
0.0
 10
204.647123
 20
186.323137
 30
0.0
 10
204.647123
 20
187.151967
 30
0.0
  0
SPLINE
  5
114
100
AcDbEntity
  8
Layer_1
 62
7
100
AcDbSpline
 70
8
 71
3
 72
8
 73
4
 74
0
 40
0
 40
0
 40
0
 40
0
 40
1
 40
1
 40
1
 40
1
 10
204.647123
 20
187.151967
 30
0.0
 10
204.647123
 20
187.980769
 30
0.0
 10
205.317598
 20
188.651272
 30
0.0
 10
206.146428
 20
188.651272
 30
0.0
  0
LWPOLYLINE
  5
115
100
AcDbEntity
  8
Layer_1
 62
7
100
AcDbPolyline
 90
2
 70
0
 10
204.143864
 20
41.637339
 30
0.0
 10
204.143864
 20
41.637339
 30
0.0
  0
SPLINE
  5
116
100
AcDbEntity
  8
Layer_1
 62
7
100
AcDbSpline
 70
8
 71
3
 72
8
 73
4
 74
0
 40
0
 40
0
 40
0
 40
0
 40
1
 40
1
 40
1
 40
1
 10
190.146545
 20
188.651272
 30
0.0
 10
190.975375
 20
188.651272
 30
0.0
 10
191.645850
 20
187.980769
 30
0.0
 10
191.645850
 20
187.151967
 30
0.0
  0
SPLINE
  5
117
100
AcDbEntity
  8
Layer_1
 62
7
100
AcDbSpline
 70
8
 71
3
 72
8
 73
4
 74
0
 40
0
 40
0
 40
0
 40
0
 40
1
 40
1
 40
1
 40
1
 10
191.645850
 20
187.151967
 30
0.0
 10
191.645850
 20
186.323137
 30
0.0
 10
190.975375
 20
185.652661
 30
0.0
 10
190.146545
 20
185.652661
 30
0.0
  0
SPLINE
  5
118
100
AcDbEntity
  8
Layer_1
 62
7
100
AcDbSpline
 70
8
 71
3
 72
8
 73
4
 74
0
 40
0
 40
0
 40
0
 40
0
 40
1
 40
1
 40
1
 40
1
 10
190.146545
 20
185.652661
 30
0.0
 10
189.317743
 20
185.652661
 30
0.0
 10
188.647239
 20
186.323137
 30
0.0
 10
188.647239
 20
187.151967
 30
0.0
  0
SPLINE
  5
119
100
AcDbEntity
  8
Layer_1
 62
7
100
AcDbSpline
 70
8
 71
3
 72
8
 73
4
 74
0
 40
0
 40
0
 40
0
 40
0
 40
1
 40
1
 40
1
 40
1
 10
188.647239
 20
187.151967
 30
0.0
 10
188.647239
 20
187.980769
 30
0.0
 10
189.317743
 20
188.651272
 30
0.0
 10
190.146545
 20
188.651272
 30
0.0
  0
LWPOLYLINE
  5
11a
100
AcDbEntity
  8
Layer_1
 62
7
100
AcDbPolyline
 90
2
 70
0
 10
206.146428
 20
188.651272
 30
0.0
 10
206.146428
 20
188.651272
 30
0.0
  0
SPLINE
  5
11b
100
AcDbEntity
  8
Layer_1
 62
7
100
AcDbSpline
 70
8
 71
3
 72
8
 73
4
 74
0
 40
0
 40
0
 40
0
 40
0
 40
1
 40
1
 40
1
 40
1
 10
174.156906
 20
188.651272
 30
0.0
 10
174.983281
 20
188.651272
 30
0.0
 10
175.647378
 20
187.980769
 30
0.0
 10
175.647378
 20
187.151967
 30
0.0
  0
SPLINE
  5
11c
100
AcDbEntity
  8
Layer_1
 62
7
100
AcDbSpline
 70
8
 71
3
 72
8
 73
4
 74
0
 40
0
 40
0
 40
0
 40
0
 40
1
 40
1
 40
1
 40
1
 10
175.647378
 20
187.151967
 30
0.0
 10
175.647378
 20
186.323137
 30
0.0
 10
174.983281
 20
185.652661
 30
0.0
 10
174.156906
 20
185.652661
 30
0.0
  0
SPLINE
  5
11d
100
AcDbEntity
  8
Layer_1
 62
7
100
AcDbSpline
 70
8
 71
3
 72
8
 73
4
 74
0
 40
0
 40
0
 40
0
 40
0
 40
1
 40
1
 40
1
 40
1
 10
174.156906
 20
185.652661
 30
0.0
 10
173.330531
 20
185.652661
 30
0.0
 10
172.648767
 20
186.323137
 30
0.0
 10
172.648767
 20
187.151967
 30
0.0
  0
SPLINE
  5
11e
100
AcDbEntity
  8
Layer_1
 62
7
100
AcDbSpline
 70
8
 71
3
 72
8
 73
4
 74
0
 40
0
 40
0
 40
0
 40
0
 40
1
 40
1
 40
1
 40
1
 10
172.648767
 20
187.151967
 30
0.0
 10
172.648767
 20
187.980769
 30
0.0
 10
173.330531
 20
188.651272
 30
0.0
 10
174.156906
 20
188.651272
 30
0.0
  0
LWPOLYLINE
  5
11f
100
AcDbEntity
  8
Layer_1
 62
7
100
AcDbPolyline
 90
2
 70
0
 10
190.146545
 20
188.651272
 30
0.0
 10
190.146545
 20
188.651272
 30
0.0
  0
SPLINE
  5
120
100
AcDbEntity
  8
Layer_1
 62
1
100
AcDbSpline
 70
8
 71
3
 72
8
 73
4
 74
0
 40
0
 40
0
 40
0
 40
0
 40
1
 40
1
 40
1
 40
1
 10
172.063918
 20
191.140331
 30
0.0
 10
170.959328
 20
191.140331
 30
0.0
 10
170.070724
 20
190.242893
 30
0.0
 10
170.070724
 20
189.138331
 30
0.0
  0
LWPOLYLINE
  5
121
100
AcDbEntity
  8
Layer_1
 62
7
100
AcDbPolyline
 90
2
 70
0
 10
174.156906
 20
188.651272
 30
0.0
 10
174.156906
 20
188.651272
 30
0.0
  0
SPLINE
  5
122
100
AcDbEntity
  8
Layer_1
 62
1
100
AcDbSpline
 70
8
 71
3
 72
8
 73
4
 74
0
 40
0
 40
0
 40
0
 40
0
 40
1
 40
1
 40
1
 40
1
 10
170.070724
 20
185.134304
 30
0.0
 10
170.070724
 20
184.029714
 30
0.0
 10
170.959328
 20
183.141109
 30
0.0
 10
172.063918
 20
183.141109
 30
0.0
  0
LWPOLYLINE
  5
123
100
AcDbEntity
  8
Layer_1
 62
1
100
AcDbPolyline
 90
2
 70
0
 10
170.070724
 20
189.138331
 30
0.0
 10
170.070724
 20
185.134304
 30
0.0
  0
SPLINE
  5
124
100
AcDbEntity
  8
Layer_1
 62
1
100
AcDbSpline
 70
8
 71
3
 72
8
 73
4
 74
0
 40
0
 40
0
 40
0
 40
0
 40
1
 40
1
 40
1
 40
1
 10
208.065991
 20
183.141109
 30
0.0
 10
209.170552
 20
183.141109
 30
0.0
 10
210.058988
 20
184.029742
 30
0.0
 10
210.058988
 20
185.134304
 30
0.0
  0
LWPOLYLINE
  5
125
100
AcDbEntity
  8
Layer_1
 62
1
100
AcDbPolyline
 90
2
 70
0
 10
172.063918
 20
183.141109
 30
0.0
 10
208.065991
 20
183.141109
 30
0.0
  0
SPLINE
  5
126
100
AcDbEntity
  8
Layer_1
 62
1
100
AcDbSpline
 70
8
 71
3
 72
8
 73
4
 74
0
 40
0
 40
0
 40
0
 40
0
 40
1
 40
1
 40
1
 40
1
 10
210.058988
 20
189.138331
 30
0.0
 10
210.058988
 20
190.242921
 30
0.0
 10
209.170552
 20
191.140331
 30
0.0
 10
208.065991
 20
191.140331
 30
0.0
  0
LWPOLYLINE
  5
127
100
AcDbEntity
  8
Layer_1
 62
1
100
AcDbPolyline
 90
2
 70
0
 10
210.058988
 20
185.134304
 30
0.0
 10
210.058988
 20
189.138331
 30
0.0
  0
SPLINE
  5
128
100
AcDbEntity
  8
Layer_1
 62
1
100
AcDbSpline
 70
8
 71
3
 72
8
 73
4
 74
0
 40
0
 40
0
 40
0
 40
0
 40
1
 40
1
 40
1
 40
1
 10
2.134306
 20
8.140333
 30
0.0
 10
1.029744
 20
8.140333
 30
0.0
 10
0.141111
 20
7.242895
 30
0.0
 10
0.141111
 20
6.138333
 30
0.0
  0
LWPOLYLINE
  5
129
100
AcDbEntity
  8
Layer_1
 62
1
100
AcDbPolyline
 90
2
 70
0
 10
208.065991
 20
191.140331
 30
0.0
 10
172.063918
 20
191.140331
 30
0.0
  0
SPLINE
  5
12a
100
AcDbEntity
  8
Layer_1
 62
1
100
AcDbSpline
 70
8
 71
3
 72
8
 73
4
 74
0
 40
0
 40
0
 40
0
 40
0
 40
1
 40
1
 40
1
 40
1
 10
0.141111
 20
2.134306
 30
0.0
 10
0.141111
 20
1.029744
 30
0.0
 10
1.029744
 20
0.141111
 30
0.0
 10
2.134306
 20
0.141111
 30
0.0
  0
LWPOLYLINE
  5
12b
100
AcDbEntity
  8
Layer_1
 62
1
100
AcDbPolyline
 90
2
 70
0
 10
0.141111
 20
6.138333
 30
0.0
 10
0.141111
 20
2.134306
 30
0.0
  0
SPLINE
  5
12c
100
AcDbEntity
  8
Layer_1
 62
1
100
AcDbSpline
 70
8
 71
3
 72
8
 73
4
 74
0
 40
0
 40
0
 40
0
 40
0
 40
1
 40
1
 40
1
 40
1
 10
149.136777
 20
0.141111
 30
0.0
 10
150.241367
 20
0.141111
 30
0.0
 10
151.129972
 20
1.029744
 30
0.0
 10
151.129972
 20
2.134306
 30
0.0
  0
LWPOLYLINE
  5
12d
100
AcDbEntity
  8
Layer_1
 62
1
100
AcDbPolyline
 90
2
 70
0
 10
2.134306
 20
0.141111
 30
0.0
 10
149.136777
 20
0.141111
 30
0.0
  0
SPLINE
  5
12e
100
AcDbEntity
  8
Layer_1
 62
1
100
AcDbSpline
 70
8
 71
3
 72
8
 73
4
 74
0
 40
0
 40
0
 40
0
 40
0
 40
1
 40
1
 40
1
 40
1
 10
151.129972
 20
6.138333
 30
0.0
 10
151.129972
 20
7.242923
 30
0.0
 10
150.241367
 20
8.140333
 30
0.0
 10
149.136777
 20
8.140333
 30
0.0
  0
LWPOLYLINE
  5
12f
100
AcDbEntity
  8
Layer_1
 62
1
100
AcDbPolyline
 90
2
 70
0
 10
151.129972
 20
2.134306
 30
0.0
 10
151.129972
 20
6.138333
 30
0.0
  0
SPLINE
  5
130
100
AcDbEntity
  8
Layer_1
 62
7
100
AcDbSpline
 70
8
 71
3
 72
8
 73
4
 74
0
 40
0
 40
0
 40
0
 40
0
 40
1
 40
1
 40
1
 40
1
 10
4.145139
 20
5.635611
 30
0.0
 10
4.971542
 20
5.635611
 30
0.0
 10
5.635639
 20
4.965107
 30
0.0
 10
5.635639
 20
4.136305
 30
0.0
  0
SPLINE
  5
131
100
AcDbEntity
  8
Layer_1
 62
7
100
AcDbSpline
 70
8
 71
3
 72
8
 73
4
 74
0
 40
0
 40
0
 40
0
 40
0
 40
1
 40
1
 40
1
 40
1
 10
5.635639
 20
4.136305
 30
0.0
 10
5.635639
 20
3.307503
 30
0.0
 10
4.971542
 20
2.637000
 30
0.0
 10
4.145139
 20
2.637000
 30
0.0
  0
SPLINE
  5
132
100
AcDbEntity
  8
Layer_1
 62
7
100
AcDbSpline
 70
8
 71
3
 72
8
 73
4
 74
0
 40
0
 40
0
 40
0
 40
0
 40
1
 40
1
 40
1
 40
1
 10
4.145139
 20
2.637000
 30
0.0
 10
3.318764
 20
2.637000
 30
0.0
 10
2.637028
 20
3.307503
 30
0.0
 10
2.637028
 20
4.136305
 30
0.0
  0
SPLINE
  5
133
100
AcDbEntity
  8
Layer_1
 62
7
100
AcDbSpline
 70
8
 71
3
 72
8
 73
4
 74
0
 40
0
 40
0
 40
0
 40
0
 40
1
 40
1
 40
1
 40
1
 10
2.637028
 20
4.136305
 30
0.0
 10
2.637028
 20
4.965107
 30
0.0
 10
3.318764
 20
5.635611
 30
0.0
 10
4.145139
 20
5.635611
 30
0.0
  0
LWPOLYLINE
  5
134
100
AcDbEntity
  8
Layer_1
 62
1
100
AcDbPolyline
 90
3
 70
0
 10
149.136777
 20
8.140333
 30
0.0
 10
2.134306
 20
8.140333
 30
0.0
 10
2.134306
 20
8.140333
 30
0.0
  0
SPLINE
  5
135
100
AcDbEntity
  8
Layer_1
 62
7
100
AcDbSpline
 70
8
 71
3
 72
8
 73
4
 74
0
 40
0
 40
0
 40
0
 40
0
 40
1
 40
1
 40
1
 40
1
 10
108.135194
 20
5.635611
 30
0.0
 10
108.963996
 20
5.635611
 30
0.0
 10
109.634500
 20
4.965107
 30
0.0
 10
109.634500
 20
4.136305
 30
0.0
  0
SPLINE
  5
136
100
AcDbEntity
  8
Layer_1
 62
7
100
AcDbSpline
 70
8
 71
3
 72
8
 73
4
 74
0
 40
0
 40
0
 40
0
 40
0
 40
1
 40
1
 40
1
 40
1
 10
109.634500
 20
4.136305
 30
0.0
 10
109.634500
 20
3.307503
 30
0.0
 10
108.963996
 20
2.637000
 30
0.0
 10
108.135194
 20
2.637000
 30
0.0
  0
SPLINE
  5
137
100
AcDbEntity
  8
Layer_1
 62
7
100
AcDbSpline
 70
8
 71
3
 72
8
 73
4
 74
0
 40
0
 40
0
 40
0
 40
0
 40
1
 40
1
 40
1
 40
1
 10
108.135194
 20
2.637000
 30
0.0
 10
107.306392
 20
2.637000
 30
0.0
 10
106.635889
 20
3.307503
 30
0.0
 10
106.635889
 20
4.136305
 30
0.0
  0
SPLINE
  5
138
100
AcDbEntity
  8
Layer_1
 62
7
100
AcDbSpline
 70
8
 71
3
 72
8
 73
4
 74
0
 40
0
 40
0
 40
0
 40
0
 40
1
 40
1
 40
1
 40
1
 10
106.635889
 20
4.136305
 30
0.0
 10
106.635889
 20
4.965107
 30
0.0
 10
107.306392
 20
5.635611
 30
0.0
 10
108.135194
 20
5.635611
 30
0.0
  0
LWPOLYLINE
  5
139
100
AcDbEntity
  8
Layer_1
 62
7
100
AcDbPolyline
 90
2
 70
0
 10
4.145139
 20
5.635611
 30
0.0
 10
4.145139
 20
5.635611
 30
0.0
  0
SPLINE
  5
13a
100
AcDbEntity
  8
Layer_1
 62
7
100
AcDbSpline
 70
8
 71
3
 72
8
 73
4
 74
0
 40
0
 40
0
 40
0
 40
0
 40
1
 40
1
 40
1
 40
1
 10
147.134778
 20
5.635611
 30
0.0
 10
147.963580
 20
5.635611
 30
0.0
 10
148.634083
 20
4.965107
 30
0.0
 10
148.634083
 20
4.136305
 30
0.0
  0
SPLINE
  5
13b
100
AcDbEntity
  8
Layer_1
 62
7
100
AcDbSpline
 70
8
 71
3
 72
8
 73
4
 74
0
 40
0
 40
0
 40
0
 40
0
 40
1
 40
1
 40
1
 40
1
 10
148.634083
 20
4.136305
 30
0.0
 10
148.634083
 20
3.307503
 30
0.0
 10
147.963580
 20
2.637000
 30
0.0
 10
147.134778
 20
2.637000
 30
0.0
  0
SPLINE
  5
13c
100
AcDbEntity
  8
Layer_1
 62
7
100
AcDbSpline
 70
8
 71
3
 72
8
 73
4
 74
0
 40
0
 40
0
 40
0
 40
0
 40
1
 40
1
 40
1
 40
1
 10
147.134778
 20
2.637000
 30
0.0
 10
146.305976
 20
2.637000
 30
0.0
 10
145.635472
 20
3.307503
 30
0.0
 10
145.635472
 20
4.136305
 30
0.0
  0
SPLINE
  5
13d
100
AcDbEntity
  8
Layer_1
 62
7
100
AcDbSpline
 70
8
 71
3
 72
8
 73
4
 74
0
 40
0
 40
0
 40
0
 40
0
 40
1
 40
1
 40
1
 40
1
 10
145.635472
 20
4.136305
 30
0.0
 10
145.635472
 20
4.965107
 30
0.0
 10
146.305976
 20
5.635611
 30
0.0
 10
147.134778
 20
5.635611
 30
0.0
  0
LWPOLYLINE
  5
13e
100
AcDbEntity
  8
Layer_1
 62
7
100
AcDbPolyline
 90
2
 70
0
 10
108.135194
 20
5.635611
 30
0.0
 10
108.135194
 20
5.635611
 30
0.0
  0
LWPOLYLINE
  5
13f
100
AcDbEntity
  8
Layer_1
 62
7
100
AcDbPolyline
 90
2
 70
0
 10
147.134778
 20
5.635611
 30
0.0
 10
147.134778
 20
5.635611
 30
0.0
  0
SPLINE
  5
140
100
AcDbEntity
  8
Layer_1
 62
1
100
AcDbSpline
 70
8
 71
3
 72
8
 73
4
 74
0
 40
0
 40
0
 40
0
 40
0
 40
1
 40
1
 40
1
 40
1
 10
2.028472
 20
10.149944
 30
0.0
 10
0.972143
 20
10.203623
 30
0.0
 10
0.141111
 20
11.073093
 30
0.0
 10
0.141111
 20
12.143139
 30
0.0
  0
LWPOLYLINE
  5
141
100
AcDbEntity
  8
Layer_1
 62
1
100
AcDbPolyline
 90
2
 70
0
 10
190.142566
 20
10.141196
 30
0.0
 10
2.028472
 20
10.149944
 30
0.0
  0
SPLINE
  5
142
100
AcDbEntity
  8
Layer_1
 62
1
100
AcDbSpline
 70
8
 71
3
 72
8
 73
4
 74
0
 40
0
 40
0
 40
0
 40
0
 40
1
 40
1
 40
1
 40
1
 10
0.141111
 20
16.147167
 30
0.0
 10
0.141111
 20
17.251756
 30
0.0
 10
1.029744
 20
18.140361
 30
0.0
 10
2.134306
 20
18.140361
 30
0.0
  0
LWPOLYLINE
  5
143
100
AcDbEntity
  8
Layer_1
 62
1
100
AcDbPolyline
 90
2
 70
0
 10
0.141111
 20
12.143139
 30
0.0
 10
0.141111
 20
16.147167
 30
0.0
  0
SPLINE
  5
144
100
AcDbEntity
  8
Layer_1
 62
1
100
AcDbSpline
 70
8
 71
3
 72
8
 73
4
 74
0
 40
0
 40
0
 40
0
 40
0
 40
1
 40
1
 40
1
 40
1
 10
190.142566
 20
18.140361
 30
0.0
 10
191.247155
 20
18.140361
 30
0.0
 10
192.135760
 20
17.251728
 30
0.0
 10
192.135760
 20
16.147167
 30
0.0
  0
LWPOLYLINE
  5
145
100
AcDbEntity
  8
Layer_1
 62
1
100
AcDbPolyline
 90
2
 70
0
 10
2.134306
 20
18.140361
 30
0.0
 10
190.142566
 20
18.140361
 30
0.0
  0
SPLINE
  5
146
100
AcDbEntity
  8
Layer_1
 62
1
100
AcDbSpline
 70
8
 71
3
 72
8
 73
4
 74
0
 40
0
 40
0
 40
0
 40
0
 40
1
 40
1
 40
1
 40
1
 10
192.135760
 20
12.143139
 30
0.0
 10
192.135760
 20
11.038549
 30
0.0
 10
191.247155
 20
10.141111
 30
0.0
 10
190.142566
 20
10.141111
 30
0.0
  0
LWPOLYLINE
  5
147
100
AcDbEntity
  8
Layer_1
 62
1
100
AcDbPolyline
 90
2
 70
0
 10
192.135760
 20
16.147167
 30
0.0
 10
192.135760
 20
12.143139
 30
0.0
  0
SPLINE
  5
148
100
AcDbEntity
  8
Layer_1
 62
7
100
AcDbSpline
 70
8
 71
3
 72
8
 73
4
 74
0
 40
0
 40
0
 40
0
 40
0
 40
1
 40
1
 40
1
 40
1
 10
188.140566
 20
12.637084
 30
0.0
 10
188.969001
 20
12.637084
 30
0.0
 10
189.639871
 20
13.307729
 30
0.0
 10
189.639871
 20
14.136390
 30
0.0
  0
SPLINE
  5
149
100
AcDbEntity
  8
Layer_1
 62
7
100
AcDbSpline
 70
8
 71
3
 72
8
 73
4
 74
0
 40
0
 40
0
 40
0
 40
0
 40
1
 40
1
 40
1
 40
1
 10
189.639871
 20
14.136390
 30
0.0
 10
189.639871
 20
14.965022
 30
0.0
 10
188.969001
 20
15.644529
 30
0.0
 10
188.140566
 20
15.644529
 30
0.0
  0
SPLINE
  5
14a
100
AcDbEntity
  8
Layer_1
 62
7
100
AcDbSpline
 70
8
 71
3
 72
8
 73
4
 74
0
 40
0
 40
0
 40
0
 40
0
 40
1
 40
1
 40
1
 40
1
 10
188.140566
 20
15.644529
 30
0.0
 10
187.312131
 20
15.644529
 30
0.0
 10
186.641260
 20
14.965022
 30
0.0
 10
186.641260
 20
14.136390
 30
0.0
  0
SPLINE
  5
14b
100
AcDbEntity
  8
Layer_1
 62
7
100
AcDbSpline
 70
8
 71
3
 72
8
 73
4
 74
0
 40
0
 40
0
 40
0
 40
0
 40
1
 40
1
 40
1
 40
1
 10
186.641260
 20
14.136390
 30
0.0
 10
186.641260
 20
13.307729
 30
0.0
 10
187.312131
 20
12.637084
 30
0.0
 10
188.140566
 20
12.637084
 30
0.0
  0
LWPOLYLINE
  5
14c
100
AcDbEntity
  8
Layer_1
 62
1
100
AcDbPolyline
 90
2
 70
0
 10
190.142566
 20
10.141111
 30
0.0
 10
190.142566
 20
10.141196
 30
0.0
  0
SPLINE
  5
14d
100
AcDbEntity
  8
Layer_1
 62
7
100
AcDbSpline
 70
8
 71
3
 72
8
 73
4
 74
0
 40
0
 40
0
 40
0
 40
0
 40
1
 40
1
 40
1
 40
1
 10
4.145139
 20
12.645833
 30
0.0
 10
4.971542
 20
12.645833
 30
0.0
 10
5.635639
 20
13.309987
 30
0.0
 10
5.635639
 20
14.136333
 30
0.0
  0
SPLINE
  5
14e
100
AcDbEntity
  8
Layer_1
 62
7
100
AcDbSpline
 70
8
 71
3
 72
8
 73
4
 74
0
 40
0
 40
0
 40
0
 40
0
 40
1
 40
1
 40
1
 40
1
 10
5.635639
 20
14.136333
 30
0.0
 10
5.635639
 20
14.962708
 30
0.0
 10
4.971542
 20
15.644444
 30
0.0
 10
4.145139
 20
15.644444
 30
0.0
  0
SPLINE
  5
14f
100
AcDbEntity
  8
Layer_1
 62
7
100
AcDbSpline
 70
8
 71
3
 72
8
 73
4
 74
0
 40
0
 40
0
 40
0
 40
0
 40
1
 40
1
 40
1
 40
1
 10
4.145139
 20
15.644444
 30
0.0
 10
3.318764
 20
15.644444
 30
0.0
 10
2.637028
 20
14.962708
 30
0.0
 10
2.637028
 20
14.136333
 30
0.0
  0
SPLINE
  5
150
100
AcDbEntity
  8
Layer_1
 62
7
100
AcDbSpline
 70
8
 71
3
 72
8
 73
4
 74
0
 40
0
 40
0
 40
0
 40
0
 40
1
 40
1
 40
1
 40
1
 10
2.637028
 20
14.136333
 30
0.0
 10
2.637028
 20
13.309987
 30
0.0
 10
3.318764
 20
12.645833
 30
0.0
 10
4.145139
 20
12.645833
 30
0.0
  0
LWPOLYLINE
  5
151
100
AcDbEntity
  8
Layer_1
 62
7
100
AcDbPolyline
 90
2
 70
0
 10
188.140566
 20
12.637084
 30
0.0
 10
188.140566
 20
12.637084
 30
0.0
  0
SPLINE
  5
152
100
AcDbEntity
  8
Layer_1
 62
7
100
AcDbSpline
 70
8
 71
3
 72
8
 73
4
 74
0
 40
0
 40
0
 40
0
 40
0
 40
1
 40
1
 40
1
 40
1
 10
41.133889
 20
12.645833
 30
0.0
 10
41.962719
 20
12.645833
 30
0.0
 10
42.633194
 20
13.309987
 30
0.0
 10
42.633194
 20
14.136333
 30
0.0
  0
SPLINE
  5
153
100
AcDbEntity
  8
Layer_1
 62
7
100
AcDbSpline
 70
8
 71
3
 72
8
 73
4
 74
0
 40
0
 40
0
 40
0
 40
0
 40
1
 40
1
 40
1
 40
1
 10
42.633194
 20
14.136333
 30
0.0
 10
42.633194
 20
14.962708
 30
0.0
 10
41.962719
 20
15.644444
 30
0.0
 10
41.133889
 20
15.644444
 30
0.0
  0
SPLINE
  5
154
100
AcDbEntity
  8
Layer_1
 62
7
100
AcDbSpline
 70
8
 71
3
 72
8
 73
4
 74
0
 40
0
 40
0
 40
0
 40
0
 40
1
 40
1
 40
1
 40
1
 10
41.133889
 20
15.644444
 30
0.0
 10
40.305087
 20
15.644444
 30
0.0
 10
39.634583
 20
14.962708
 30
0.0
 10
39.634583
 20
14.136333
 30
0.0
  0
SPLINE
  5
155
100
AcDbEntity
  8
Layer_1
 62
7
100
AcDbSpline
 70
8
 71
3
 72
8
 73
4
 74
0
 40
0
 40
0
 40
0
 40
0
 40
1
 40
1
 40
1
 40
1
 10
39.634583
 20
14.136333
 30
0.0
 10
39.634583
 20
13.309987
 30
0.0
 10
40.305087
 20
12.645833
 30
0.0
 10
41.133889
 20
12.645833
 30
0.0
  0
LWPOLYLINE
  5
156
100
AcDbEntity
  8
Layer_1
 62
7
100
AcDbPolyline
 90
2
 70
0
 10
4.145139
 20
12.645833
 30
0.0
 10
4.145139
 20
12.645833
 30
0.0
  0
SPLINE
  5
157
100
AcDbEntity
  8
Layer_1
 62
1
100
AcDbSpline
 70
8
 71
3
 72
8
 73
4
 74
0
 40
0
 40
0
 40
0
 40
0
 40
1
 40
1
 40
1
 40
1
 10
261.003246
 20
84.140319
 30
0.0
 10
261.003246
 20
86.274202
 30
0.0
 10
259.274211
 20
88.003236
 30
0.0
 10
257.140343
 20
88.003236
 30
0.0
  0
SPLINE
  5
158
100
AcDbEntity
  8
Layer_1
 62
1
100
AcDbSpline
 70
8
 71
3
 72
8
 73
4
 74
0
 40
0
 40
0
 40
0
 40
0
 40
1
 40
1
 40
1
 40
1
 10
257.140343
 20
88.003236
 30
0.0
 10
255.006489
 20
88.003236
 30
0.0
 10
253.277426
 20
86.274202
 30
0.0
 10
253.277426
 20
84.140319
 30
0.0
  0
SPLINE
  5
159
100
AcDbEntity
  8
Layer_1
 62
1
100
AcDbSpline
 70
8
 71
3
 72
8
 73
4
 74
0
 40
0
 40
0
 40
0
 40
0
 40
1
 40
1
 40
1
 40
1
 10
253.277426
 20
84.140319
 30
0.0
 10
253.277426
 20
82.006465
 30
0.0
 10
255.006489
 20
80.277403
 30
0.0
 10
257.140343
 20
80.277403
 30
0.0
  0
SPLINE
  5
15a
100
AcDbEntity
  8
Layer_1
 62
1
100
AcDbSpline
 70
8
 71
3
 72
8
 73
4
 74
0
 40
0
 40
0
 40
0
 40
0
 40
1
 40
1
 40
1
 40
1
 10
257.140343
 20
80.277403
 30
0.0
 10
259.274211
 20
80.277403
 30
0.0
 10
261.003246
 20
82.006465
 30
0.0
 10
261.003246
 20
84.140319
 30
0.0
  0
LWPOLYLINE
  5
15b
100
AcDbEntity
  8
Layer_1
 62
7
100
AcDbPolyline
 90
2
 70
0
 10
41.133889
 20
12.645833
 30
0.0
 10
41.133889
 20
12.645833
 30
0.0
  0
SPLINE
  5
15c
100
AcDbEntity
  8
Layer_1
 62
7
100
AcDbSpline
 70
8
 71
3
 72
8
 73
4
 74
0
 40
0
 40
0
 40
0
 40
0
 40
1
 40
1
 40
1
 40
1
 10
258.560274
 20
84.113875
 30
0.0
 10
258.560274
 20
83.347416
 30
0.0
 10
257.933261
 20
82.729237
 30
0.0
 10
257.166816
 20
82.729237
 30
0.0
  0
SPLINE
  5
15d
100
AcDbEntity
  8
Layer_1
 62
7
100
AcDbSpline
 70
8
 71
3
 72
8
 73
4
 74
0
 40
0
 40
0
 40
0
 40
0
 40
1
 40
1
 40
1
 40
1
 10
257.166816
 20
82.729237
 30
0.0
 10
256.400356
 20
82.729237
 30
0.0
 10
255.782120
 20
83.347416
 30
0.0
 10
255.782120
 20
84.113875
 30
0.0
  0
SPLINE
  5
15e
100
AcDbEntity
  8
Layer_1
 62
7
100
AcDbSpline
 70
8
 71
3
 72
8
 73
4
 74
0
 40
0
 40
0
 40
0
 40
0
 40
1
 40
1
 40
1
 40
1
 10
255.782120
 20
84.113875
 30
0.0
 10
255.782120
 20
84.880334
 30
0.0
 10
256.400328
 20
85.507347
 30
0.0
 10
257.166816
 20
85.507347
 30
0.0
  0
SPLINE
  5
15f
100
AcDbEntity
  8
Layer_1
 62
7
100
AcDbSpline
 70
8
 71
3
 72
8
 73
4
 74
0
 40
0
 40
0
 40
0
 40
0
 40
1
 40
1
 40
1
 40
1
 10
257.166816
 20
85.507347
 30
0.0
 10
257.933261
 20
85.507347
 30
0.0
 10
258.560274
 20
84.880334
 30
0.0
 10
258.560274
 20
84.113875
 30
0.0
  0
LWPOLYLINE
  5
160
100
AcDbEntity
  8
Layer_1
 62
1
100
AcDbPolyline
 90
2
 70
0
 10
261.003246
 20
84.140319
 30
0.0
 10
261.003246
 20
84.140319
 30
0.0
  0
SPLINE
  5
161
100
AcDbEntity
  8
Layer_1
 62
1
100
AcDbSpline
 70
8
 71
3
 72
8
 73
4
 74
0
 40
0
 40
0
 40
0
 40
0
 40
1
 40
1
 40
1
 40
1
 10
261.003246
 20
54.140329
 30
0.0
 10
261.003246
 20
56.274188
 30
0.0
 10
259.274211
 20
58.003245
 30
0.0
 10
257.140343
 20
58.003245
 30
0.0
  0
SPLINE
  5
162
100
AcDbEntity
  8
Layer_1
 62
1
100
AcDbSpline
 70
8
 71
3
 72
8
 73
4
 74
0
 40
0
 40
0
 40
0
 40
0
 40
1
 40
1
 40
1
 40
1
 10
257.140343
 20
58.003245
 30
0.0
 10
255.006489
 20
58.003245
 30
0.0
 10
253.277426
 20
56.274188
 30
0.0
 10
253.277426
 20
54.140329
 30
0.0
  0
SPLINE
  5
163
100
AcDbEntity
  8
Layer_1
 62
1
100
AcDbSpline
 70
8
 71
3
 72
8
 73
4
 74
0
 40
0
 40
0
 40
0
 40
0
 40
1
 40
1
 40
1
 40
1
 10
253.277426
 20
54.140329
 30
0.0
 10
253.277426
 20
52.006466
 30
0.0
 10
255.006489
 20
50.277412
 30
0.0
 10
257.140343
 20
50.277412
 30
0.0
  0
SPLINE
  5
164
100
AcDbEntity
  8
Layer_1
 62
1
100
AcDbSpline
 70
8
 71
3
 72
8
 73
4
 74
0
 40
0
 40
0
 40
0
 40
0
 40
1
 40
1
 40
1
 40
1
 10
257.140343
 20
50.277412
 30
0.0
 10
259.274211
 20
50.277412
 30
0.0
 10
261.003246
 20
52.006466
 30
0.0
 10
261.003246
 20
54.140329
 30
0.0
  0
LWPOLYLINE
  5
165
100
AcDbEntity
  8
Layer_1
 62
7
100
AcDbPolyline
 90
2
 70
0
 10
258.560274
 20
84.113875
 30
0.0
 10
258.560274
 20
84.113875
 30
0.0
  0
SPLINE
  5
166
100
AcDbEntity
  8
Layer_1
 62
7
100
AcDbSpline
 70
8
 71
3
 72
8
 73
4
 74
0
 40
0
 40
0
 40
0
 40
0
 40
1
 40
1
 40
1
 40
1
 10
258.560274
 20
54.113884
 30
0.0
 10
258.560274
 20
53.347428
 30
0.0
 10
257.933261
 20
52.729232
 30
0.0
 10
257.166816
 20
52.729232
 30
0.0
  0
SPLINE
  5
167
100
AcDbEntity
  8
Layer_1
 62
7
100
AcDbSpline
 70
8
 71
3
 72
8
 73
4
 74
0
 40
0
 40
0
 40
0
 40
0
 40
1
 40
1
 40
1
 40
1
 10
257.166816
 20
52.729232
 30
0.0
 10
256.400356
 20
52.729232
 30
0.0
 10
255.782120
 20
53.347428
 30
0.0
 10
255.782120
 20
54.113884
 30
0.0
  0
SPLINE
  5
168
100
AcDbEntity
  8
Layer_1
 62
7
100
AcDbSpline
 70
8
 71
3
 72
8
 73
4
 74
0
 40
0
 40
0
 40
0
 40
0
 40
1
 40
1
 40
1
 40
1
 10
255.782120
 20
54.113884
 30
0.0
 10
255.782120
 20
54.880338
 30
0.0
 10
256.400328
 20
55.507357
 30
0.0
 10
257.166816
 20
55.507357
 30
0.0
  0
SPLINE
  5
169
100
AcDbEntity
  8
Layer_1
 62
7
100
AcDbSpline
 70
8
 71
3
 72
8
 73
4
 74
0
 40
0
 40
0
 40
0
 40
0
 40
1
 40
1
 40
1
 40
1
 10
257.166816
 20
55.507357
 30
0.0
 10
257.933261
 20
55.507357
 30
0.0
 10
258.560274
 20
54.880338
 30
0.0
 10
258.560274
 20
54.113884
 30
0.0
  0
LWPOLYLINE
  5
16a
100
AcDbEntity
  8
Layer_1
 62
1
100
AcDbPolyline
 90
2
 70
0
 10
261.003246
 20
54.140329
 30
0.0
 10
261.003246
 20
54.140329
 30
0.0
  0
SPLINE
  5
16b
100
AcDbEntity
  8
Layer_1
 62
1
100
AcDbSpline
 70
8
 71
3
 72
8
 73
4
 74
0
 40
0
 40
0
 40
0
 40
0
 40
1
 40
1
 40
1
 40
1
 10
261.003246
 20
64.140331
 30
0.0
 10
261.003246
 20
66.274185
 30
0.0
 10
259.274211
 20
68.003248
 30
0.0
 10
257.140343
 20
68.003248
 30
0.0
  0
SPLINE
  5
16c
100
AcDbEntity
  8
Layer_1
 62
1
100
AcDbSpline
 70
8
 71
3
 72
8
 73
4
 74
0
 40
0
 40
0
 40
0
 40
0
 40
1
 40
1
 40
1
 40
1
 10
257.140343
 20
68.003248
 30
0.0
 10
255.006489
 20
68.003248
 30
0.0
 10
253.277426
 20
66.274185
 30
0.0
 10
253.277426
 20
64.140331
 30
0.0
  0
SPLINE
  5
16d
100
AcDbEntity
  8
Layer_1
 62
1
100
AcDbSpline
 70
8
 71
3
 72
8
 73
4
 74
0
 40
0
 40
0
 40
0
 40
0
 40
1
 40
1
 40
1
 40
1
 10
253.277426
 20
64.140331
 30
0.0
 10
253.277426
 20
62.006477
 30
0.0
 10
255.006489
 20
60.277412
 30
0.0
 10
257.140343
 20
60.277412
 30
0.0
  0
SPLINE
  5
16e
100
AcDbEntity
  8
Layer_1
 62
1
100
AcDbSpline
 70
8
 71
3
 72
8
 73
4
 74
0
 40
0
 40
0
 40
0
 40
0
 40
1
 40
1
 40
1
 40
1
 10
257.140343
 20
60.277412
 30
0.0
 10
259.274211
 20
60.277412
 30
0.0
 10
261.003246
 20
62.006477
 30
0.0
 10
261.003246
 20
64.140331
 30
0.0
  0
LWPOLYLINE
  5
16f
100
AcDbEntity
  8
Layer_1
 62
7
100
AcDbPolyline
 90
2
 70
0
 10
258.560274
 20
54.113884
 30
0.0
 10
258.560274
 20
54.113884
 30
0.0
  0
SPLINE
  5
170
100
AcDbEntity
  8
Layer_1
 62
7
100
AcDbSpline
 70
8
 71
3
 72
8
 73
4
 74
0
 40
0
 40
0
 40
0
 40
0
 40
1
 40
1
 40
1
 40
1
 10
258.560274
 20
64.113887
 30
0.0
 10
258.560274
 20
63.347428
 30
0.0
 10
257.933261
 20
62.729220
 30
0.0
 10
257.166816
 20
62.729220
 30
0.0
  0
SPLINE
  5
171
100
AcDbEntity
  8
Layer_1
 62
7
100
AcDbSpline
 70
8
 71
3
 72
8
 73
4
 74
0
 40
0
 40
0
 40
0
 40
0
 40
1
 40
1
 40
1
 40
1
 10
257.166816
 20
62.729220
 30
0.0
 10
256.400356
 20
62.729220
 30
0.0
 10
255.782120
 20
63.347428
 30
0.0
 10
255.782120
 20
64.113887
 30
0.0
  0
SPLINE
  5
172
100
AcDbEntity
  8
Layer_1
 62
7
100
AcDbSpline
 70
8
 71
3
 72
8
 73
4
 74
0
 40
0
 40
0
 40
0
 40
0
 40
1
 40
1
 40
1
 40
1
 10
255.782120
 20
64.113887
 30
0.0
 10
255.782120
 20
64.880346
 30
0.0
 10
256.400328
 20
65.507359
 30
0.0
 10
257.166816
 20
65.507359
 30
0.0
  0
SPLINE
  5
173
100
AcDbEntity
  8
Layer_1
 62
7
100
AcDbSpline
 70
8
 71
3
 72
8
 73
4
 74
0
 40
0
 40
0
 40
0
 40
0
 40
1
 40
1
 40
1
 40
1
 10
257.166816
 20
65.507359
 30
0.0
 10
257.933261
 20
65.507359
 30
0.0
 10
258.560274
 20
64.880346
 30
0.0
 10
258.560274
 20
64.113887
 30
0.0
  0
LWPOLYLINE
  5
174
100
AcDbEntity
  8
Layer_1
 62
1
100
AcDbPolyline
 90
2
 70
0
 10
261.003246
 20
64.140331
 30
0.0
 10
261.003246
 20
64.140331
 30
0.0
  0
SPLINE
  5
175
100
AcDbEntity
  8
Layer_1
 62
1
100
AcDbSpline
 70
8
 71
3
 72
8
 73
4
 74
0
 40
0
 40
0
 40
0
 40
0
 40
1
 40
1
 40
1
 40
1
 10
261.003246
 20
74.140339
 30
0.0
 10
261.003246
 20
76.274193
 30
0.0
 10
259.274211
 20
78.003256
 30
0.0
 10
257.140343
 20
78.003256
 30
0.0
  0
SPLINE
  5
176
100
AcDbEntity
  8
Layer_1
 62
1
100
AcDbSpline
 70
8
 71
3
 72
8
 73
4
 74
0
 40
0
 40
0
 40
0
 40
0
 40
1
 40
1
 40
1
 40
1
 10
257.140343
 20
78.003256
 30
0.0
 10
255.006489
 20
78.003256
 30
0.0
 10
253.277426
 20
76.274193
 30
0.0
 10
253.277426
 20
74.140339
 30
0.0
  0
SPLINE
  5
177
100
AcDbEntity
  8
Layer_1
 62
1
100
AcDbSpline
 70
8
 71
3
 72
8
 73
4
 74
0
 40
0
 40
0
 40
0
 40
0
 40
1
 40
1
 40
1
 40
1
 10
253.277426
 20
74.140339
 30
0.0
 10
253.277426
 20
72.006457
 30
0.0
 10
255.006489
 20
70.277423
 30
0.0
 10
257.140343
 20
70.277423
 30
0.0
  0
SPLINE
  5
178
100
AcDbEntity
  8
Layer_1
 62
1
100
AcDbSpline
 70
8
 71
3
 72
8
 73
4
 74
0
 40
0
 40
0
 40
0
 40
0
 40
1
 40
1
 40
1
 40
1
 10
257.140343
 20
70.277423
 30
0.0
 10
259.274211
 20
70.277423
 30
0.0
 10
261.003246
 20
72.006457
 30
0.0
 10
261.003246
 20
74.140339
 30
0.0
  0
LWPOLYLINE
  5
179
100
AcDbEntity
  8
Layer_1
 62
7
100
AcDbPolyline
 90
2
 70
0
 10
258.560274
 20
64.113887
 30
0.0
 10
258.560274
 20
64.113887
 30
0.0
  0
SPLINE
  5
17a
100
AcDbEntity
  8
Layer_1
 62
7
100
AcDbSpline
 70
8
 71
3
 72
8
 73
4
 74
0
 40
0
 40
0
 40
0
 40
0
 40
1
 40
1
 40
1
 40
1
 10
258.560274
 20
74.113895
 30
0.0
 10
258.560274
 20
73.347436
 30
0.0
 10
257.933261
 20
72.729228
 30
0.0
 10
257.166816
 20
72.729228
 30
0.0
  0
SPLINE
  5
17b
100
AcDbEntity
  8
Layer_1
 62
7
100
AcDbSpline
 70
8
 71
3
 72
8
 73
4
 74
0
 40
0
 40
0
 40
0
 40
0
 40
1
 40
1
 40
1
 40
1
 10
257.166816
 20
72.729228
 30
0.0
 10
256.400356
 20
72.729228
 30
0.0
 10
255.782120
 20
73.347436
 30
0.0
 10
255.782120
 20
74.113895
 30
0.0
  0
SPLINE
  5
17c
100
AcDbEntity
  8
Layer_1
 62
7
100
AcDbSpline
 70
8
 71
3
 72
8
 73
4
 74
0
 40
0
 40
0
 40
0
 40
0
 40
1
 40
1
 40
1
 40
1
 10
255.782120
 20
74.113895
 30
0.0
 10
255.782120
 20
74.880326
 30
0.0
 10
256.400328
 20
75.507367
 30
0.0
 10
257.166816
 20
75.507367
 30
0.0
  0
SPLINE
  5
17d
100
AcDbEntity
  8
Layer_1
 62
7
100
AcDbSpline
 70
8
 71
3
 72
8
 73
4
 74
0
 40
0
 40
0
 40
0
 40
0
 40
1
 40
1
 40
1
 40
1
 10
257.166816
 20
75.507367
 30
0.0
 10
257.933261
 20
75.507367
 30
0.0
 10
258.560274
 20
74.880326
 30
0.0
 10
258.560274
 20
74.113895
 30
0.0
  0
LWPOLYLINE
  5
17e
100
AcDbEntity
  8
Layer_1
 62
1
100
AcDbPolyline
 90
2
 70
0
 10
261.003246
 20
74.140339
 30
0.0
 10
261.003246
 20
74.140339
 30
0.0
  0
LWPOLYLINE
  5
17f
100
AcDbEntity
  8
Layer_1
 62
7
100
AcDbPolyline
 90
2
 70
0
 10
258.560274
 20
74.113895
 30
0.0
 10
258.560274
 20
74.113895
 30
0.0
  0
SPLINE
  5
180
100
AcDbEntity
  8
Layer_1
 62
1
100
AcDbSpline
 70
8
 71
3
 72
8
 73
4
 74
0
 40
0
 40
0
 40
0
 40
0
 40
1
 40
1
 40
1
 40
1
 10
167.048547
 20
199.185225
 30
0.0
 10
165.761529
 20
198.879006
 30
0.0
 10
164.419308
 20
198.405284
 30
0.0
 10
163.457354
 20
197.489818
 30
0.0
  0
SPLINE
  5
181
100
AcDbEntity
  8
Layer_1
 62
1
100
AcDbSpline
 70
8
 71
3
 72
8
 73
4
 74
0
 40
0
 40
0
 40
0
 40
0
 40
1
 40
1
 40
1
 40
1
 10
163.457354
 20
197.489818
 30
0.0
 10
162.495371
 20
196.574354
 30
0.0
 10
161.900842
 20
195.308570
 30
0.0
 10
161.900842
 20
193.911615
 30
0.0
  0
LWPOLYLINE
  5
182
100
AcDbEntity
  8
Layer_1
 62
1
100
AcDbPolyline
 90
12
 70
0
 10
250.140188
 20
60.364266
 30
0.0
 10
238.141115
 20
49.141115
 30
0.0
 10
228.141107
 20
49.233308
 30
0.0
 10
228.141107
 20
54.233326
 30
0.0
 10
218.141098
 20
54.233326
 30
0.0
 10
218.141098
 20
49.231333
 30
0.0
 10
149.141095
 20
49.231333
 30
0.0
 10
149.141095
 20
55.307549
 30
0.0
 10
149.141095
 20
213.141111
 30
0.0
 10
183.157312
 20
213.141111
 30
0.0
 10
183.157312
 20
203.022203
 30
0.0
 10
167.048547
 20
199.185225
 30
0.0
  0
SPLINE
  5
183
100
AcDbEntity
  8
Layer_1
 62
1
100
AcDbSpline
 70
8
 71
3
 72
8
 73
4
 74
0
 40
0
 40
0
 40
0
 40
0
 40
1
 40
1
 40
1
 40
1
 10
161.900842
 20
69.468670
 30
0.0
 10
161.900842
 20
66.674754
 30
0.0
 10
164.281471
 20
64.409216
 30
0.0
 10
167.217316
 20
64.409216
 30
0.0
  0
LWPOLYLINE
  5
184
100
AcDbEntity
  8
Layer_1
 62
1
100
AcDbPolyline
 90
2
 70
0
 10
161.900842
 20
193.911615
 30
0.0
 10
161.900842
 20
69.468670
 30
0.0
  0
SPLINE
  5
185
100
AcDbEntity
  8
Layer_1
 62
7
100
AcDbSpline
 70
8
 71
3
 72
8
 73
4
 74
0
 40
0
 40
0
 40
0
 40
0
 40
1
 40
1
 40
1
 40
1
 10
178.770224
 20
57.686428
 30
0.0
 10
178.775304
 20
57.733080
 30
0.0
 10
178.770224
 20
57.785404
 30
0.0
 10
178.770224
 20
57.833325
 30
0.0
  0
SPLINE
  5
186
100
AcDbEntity
  8
Layer_1
 62
7
100
AcDbSpline
 70
8
 71
3
 72
8
 73
4
 74
0
 40
0
 40
0
 40
0
 40
0
 40
1
 40
1
 40
1
 40
1
 10
178.770224
 20
57.833325
 30
0.0
 10
178.770224
 20
58.599643
 30
0.0
 10
178.118516
 20
59.220447
 30
0.0
 10
177.313731
 20
59.220447
 30
0.0
  0
SPLINE
  5
187
100
AcDbEntity
  8
Layer_1
 62
7
100
AcDbSpline
 70
8
 71
3
 72
8
 73
4
 74
0
 40
0
 40
0
 40
0
 40
0
 40
1
 40
1
 40
1
 40
1
 10
177.313731
 20
59.220447
 30
0.0
 10
176.508946
 20
59.220447
 30
0.0
 10
175.857239
 20
58.599643
 30
0.0
 10
175.857239
 20
57.833325
 30
0.0
  0
SPLINE
  5
188
100
AcDbEntity
  8
Layer_1
 62
7
100
AcDbSpline
 70
8
 71
3
 72
8
 73
4
 74
0
 40
0
 40
0
 40
0
 40
0
 40
1
 40
1
 40
1
 40
1
 10
175.857239
 20
57.833325
 30
0.0
 10
175.857239
 20
57.066696
 30
0.0
 10
176.508946
 20
56.446174
 30
0.0
 10
177.313731
 20
56.446174
 30
0.0
  0
SPLINE
  5
189
100
AcDbEntity
  8
Layer_1
 62
7
100
AcDbSpline
 70
8
 71
3
 72
8
 73
4
 74
0
 40
0
 40
0
 40
0
 40
0
 40
1
 40
1
 40
1
 40
1
 10
177.313731
 20
56.446174
 30
0.0
 10
178.068196
 20
56.446174
 30
0.0
 10
178.695604
 20
56.986517
 30
0.0
 10
178.770224
 20
57.686428
 30
0.0
  0
LWPOLYLINE
  5
18a
100
AcDbEntity
  8
Layer_1
 62
1
100
AcDbPolyline
 90
3
 70
0
 10
167.217316
 20
64.409216
 30
0.0
 10
250.138974
 20
64.409216
 30
0.0
 10
250.140188
 20
60.364266
 30
0.0
  0
SPLINE
  5
18b
100
AcDbEntity
  8
Layer_1
 62
7
100
AcDbSpline
 70
8
 71
3
 72
8
 73
4
 74
0
 40
0
 40
0
 40
0
 40
0
 40
1
 40
1
 40
1
 40
1
 10
178.770224
 20
207.427584
 30
0.0
 10
178.775304
 20
207.474233
 30
0.0
 10
178.770224
 20
207.526560
 30
0.0
 10
178.770224
 20
207.574459
 30
0.0
  0
SPLINE
  5
18c
100
AcDbEntity
  8
Layer_1
 62
7
100
AcDbSpline
 70
8
 71
3
 72
8
 73
4
 74
0
 40
0
 40
0
 40
0
 40
0
 40
1
 40
1
 40
1
 40
1
 10
178.770224
 20
207.574459
 30
0.0
 10
178.770224
 20
208.340813
 30
0.0
 10
178.118516
 20
208.961601
 30
0.0
 10
177.313731
 20
208.961601
 30
0.0
  0
SPLINE
  5
18d
100
AcDbEntity
  8
Layer_1
 62
7
100
AcDbSpline
 70
8
 71
3
 72
8
 73
4
 74
0
 40
0
 40
0
 40
0
 40
0
 40
1
 40
1
 40
1
 40
1
 10
177.313731
 20
208.961601
 30
0.0
 10
176.508946
 20
208.961601
 30
0.0
 10
175.857239
 20
208.340813
 30
0.0
 10
175.857239
 20
207.574459
 30
0.0
  0
SPLINE
  5
18e
100
AcDbEntity
  8
Layer_1
 62
7
100
AcDbSpline
 70
8
 71
3
 72
8
 73
4
 74
0
 40
0
 40
0
 40
0
 40
0
 40
1
 40
1
 40
1
 40
1
 10
175.857239
 20
207.574459
 30
0.0
 10
175.857239
 20
206.808104
 30
0.0
 10
176.508946
 20
206.187319
 30
0.0
 10
177.313731
 20
206.187319
 30
0.0
  0
SPLINE
  5
18f
100
AcDbEntity
  8
Layer_1
 62
7
100
AcDbSpline
 70
8
 71
3
 72
8
 73
4
 74
0
 40
0
 40
0
 40
0
 40
0
 40
1
 40
1
 40
1
 40
1
 10
177.313731
 20
206.187319
 30
0.0
 10
178.068196
 20
206.187319
 30
0.0
 10
178.695604
 20
206.727854
 30
0.0
 10
178.770224
 20
207.427584
 30
0.0
  0
LWPOLYLINE
  5
190
100
AcDbEntity
  8
Layer_1
 62
7
100
AcDbPolyline
 90
2
 70
0
 10
178.770224
 20
57.686428
 30
0.0
 10
178.770224
 20
57.686428
 30
0.0
  0
SPLINE
  5
191
100
AcDbEntity
  8
Layer_1
 62
7
100
AcDbSpline
 70
8
 71
3
 72
8
 73
4
 74
0
 40
0
 40
0
 40
0
 40
0
 40
1
 40
1
 40
1
 40
1
 10
214.917584
 20
57.686428
 30
0.0
 10
214.922664
 20
57.733080
 30
0.0
 10
214.917584
 20
57.785404
 30
0.0
 10
214.917584
 20
57.833325
 30
0.0
  0
SPLINE
  5
192
100
AcDbEntity
  8
Layer_1
 62
7
100
AcDbSpline
 70
8
 71
3
 72
8
 73
4
 74
0
 40
0
 40
0
 40
0
 40
0
 40
1
 40
1
 40
1
 40
1
 10
214.917584
 20
57.833325
 30
0.0
 10
214.917584
 20
58.599643
 30
0.0
 10
214.265849
 20
59.220447
 30
0.0
 10
213.461092
 20
59.220447
 30
0.0
  0
SPLINE
  5
193
100
AcDbEntity
  8
Layer_1
 62
7
100
AcDbSpline
 70
8
 71
3
 72
8
 73
4
 74
0
 40
0
 40
0
 40
0
 40
0
 40
1
 40
1
 40
1
 40
1
 10
213.461092
 20
59.220447
 30
0.0
 10
212.656307
 20
59.220447
 30
0.0
 10
212.004571
 20
58.599643
 30
0.0
 10
212.004571
 20
57.833325
 30
0.0
  0
SPLINE
  5
194
100
AcDbEntity
  8
Layer_1
 62
7
100
AcDbSpline
 70
8
 71
3
 72
8
 73
4
 74
0
 40
0
 40
0
 40
0
 40
0
 40
1
 40
1
 40
1
 40
1
 10
212.004571
 20
57.833325
 30
0.0
 10
212.004571
 20
57.066696
 30
0.0
 10
212.656307
 20
56.446174
 30
0.0
 10
213.461092
 20
56.446174
 30
0.0
  0
SPLINE
  5
195
100
AcDbEntity
  8
Layer_1
 62
7
100
AcDbSpline
 70
8
 71
3
 72
8
 73
4
 74
0
 40
0
 40
0
 40
0
 40
0
 40
1
 40
1
 40
1
 40
1
 10
213.461092
 20
56.446174
 30
0.0
 10
214.215557
 20
56.446174
 30
0.0
 10
214.842965
 20
56.986517
 30
0.0
 10
214.917584
 20
57.686428
 30
0.0
  0
LWPOLYLINE
  5
196
100
AcDbEntity
  8
Layer_1
 62
7
100
AcDbPolyline
 90
2
 70
0
 10
178.770224
 20
207.427584
 30
0.0
 10
178.770224
 20
207.427584
 30
0.0
  0
SPLINE
  5
197
100
AcDbEntity
  8
Layer_1
 62
1
100
AcDbSpline
 70
8
 71
3
 72
8
 73
4
 74
0
 40
0
 40
0
 40
0
 40
0
 40
1
 40
1
 40
1
 40
1
 10
257.141105
 20
113.141125
 30
0.0
 10
257.141105
 20
87.183742
 30
0.0
 10
236.098475
 20
66.141126
 30
0.0
 10
210.141086
 20
66.141126
 30
0.0
  0
SPLINE
  5
198
100
AcDbEntity
  8
Layer_1
 62
1
100
AcDbSpline
 70
8
 71
3
 72
8
 73
4
 74
0
 40
0
 40
0
 40
0
 40
0
 40
1
 40
1
 40
1
 40
1
 10
210.141086
 20
66.141126
 30
0.0
 10
184.183697
 20
66.141126
 30
0.0
 10
163.141096
 20
87.183742
 30
0.0
 10
163.141096
 20
113.141125
 30
0.0
  0
SPLINE
  5
199
100
AcDbEntity
  8
Layer_1
 62
1
100
AcDbSpline
 70
8
 71
3
 72
8
 73
4
 74
0
 40
0
 40
0
 40
0
 40
0
 40
1
 40
1
 40
1
 40
1
 10
163.141096
 20
113.141125
 30
0.0
 10
163.141096
 20
139.098508
 30
0.0
 10
184.183697
 20
160.141124
 30
0.0
 10
210.141086
 20
160.141124
 30
0.0
  0
SPLINE
  5
19a
100
AcDbEntity
  8
Layer_1
 62
1
100
AcDbSpline
 70
8
 71
3
 72
8
 73
4
 74
0
 40
0
 40
0
 40
0
 40
0
 40
1
 40
1
 40
1
 40
1
 10
210.141086
 20
160.141124
 30
0.0
 10
236.098475
 20
160.141124
 30
0.0
 10
257.141105
 20
139.098508
 30
0.0
 10
257.141105
 20
113.141125
 30
0.0
  0
LWPOLYLINE
  5
19b
100
AcDbEntity
  8
Layer_1
 62
7
100
AcDbPolyline
 90
2
 70
0
 10
214.917584
 20
57.686428
 30
0.0
 10
214.917584
 20
57.686428
 30
0.0
  0
SPLINE
  5
19c
100
AcDbEntity
  8
Layer_1
 62
7
100
AcDbSpline
 70
8
 71
3
 72
8
 73
4
 74
0
 40
0
 40
0
 40
0
 40
0
 40
1
 40
1
 40
1
 40
1
 10
210.141058
 20
114.640405
 30
0.0
 10
210.918100
 20
114.640405
 30
0.0
 10
211.554709
 20
114.045554
 30
0.0
 10
211.631558
 20
113.291030
 30
0.0
  0
SPLINE
  5
19d
100
AcDbEntity
  8
Layer_1
 62
7
100
AcDbSpline
 70
8
 71
3
 72
8
 73
4
 74
0
 40
0
 40
0
 40
0
 40
0
 40
1
 40
1
 40
1
 40
1
 10
211.631558
 20
113.291030
 30
0.0
 10
211.636638
 20
113.240730
 30
0.0
 10
211.640307
 20
113.192749
 30
0.0
 10
211.640307
 20
113.141100
 30
0.0
  0
SPLINE
  5
19e
100
AcDbEntity
  8
Layer_1
 62
7
100
AcDbSpline
 70
8
 71
3
 72
8
 73
4
 74
0
 40
0
 40
0
 40
0
 40
0
 40
1
 40
1
 40
1
 40
1
 10
211.640307
 20
113.141100
 30
0.0
 10
211.640307
 20
113.089453
 30
0.0
 10
211.636638
 20
113.032653
 30
0.0
 10
211.631558
 20
112.982350
 30
0.0
  0
SPLINE
  5
19f
100
AcDbEntity
  8
Layer_1
 62
7
100
AcDbSpline
 70
8
 71
3
 72
8
 73
4
 74
0
 40
0
 40
0
 40
0
 40
0
 40
1
 40
1
 40
1
 40
1
 10
211.631558
 20
112.982350
 30
0.0
 10
211.626478
 20
112.932049
 30
0.0
 10
211.615189
 20
112.881122
 30
0.0
 10
211.605029
 20
112.832419
 30
0.0
  0
SPLINE
  5
1a0
100
AcDbEntity
  8
Layer_1
 62
7
100
AcDbSpline
 70
8
 71
3
 72
8
 73
4
 74
0
 40
0
 40
0
 40
0
 40
0
 40
1
 40
1
 40
1
 40
1
 10
211.605029
 20
112.832419
 30
0.0
 10
211.575029
 20
112.686310
 30
0.0
 10
211.524398
 20
112.545120
 30
0.0
 10
211.455085
 20
112.417905
 30
0.0
  0
SPLINE
  5
1a1
100
AcDbEntity
  8
Layer_1
 62
7
100
AcDbSpline
 70
8
 71
3
 72
8
 73
4
 74
0
 40
0
 40
0
 40
0
 40
0
 40
1
 40
1
 40
1
 40
1
 10
211.455085
 20
112.417905
 30
0.0
 10
211.431942
 20
112.375501
 30
0.0
 10
211.411481
 20
112.334238
 30
0.0
 10
211.384529
 20
112.294433
 30
0.0
  0
SPLINE
  5
1a2
100
AcDbEntity
  8
Layer_1
 62
7
100
AcDbSpline
 70
8
 71
3
 72
8
 73
4
 74
0
 40
0
 40
0
 40
0
 40
0
 40
1
 40
1
 40
1
 40
1
 10
211.384529
 20
112.294433
 30
0.0
 10
211.330596
 20
112.214829
 30
0.0
 10
211.267209
 20
112.141641
 30
0.0
 10
211.199307
 20
112.073947
 30
0.0
  0
SPLINE
  5
1a3
100
AcDbEntity
  8
Layer_1
 62
7
100
AcDbSpline
 70
8
 71
3
 72
8
 73
4
 74
0
 40
0
 40
0
 40
0
 40
0
 40
1
 40
1
 40
1
 40
1
 10
211.199307
 20
112.073947
 30
0.0
 10
211.097509
 20
111.972406
 30
0.0
 10
210.982955
 20
111.896107
 30
0.0
 10
210.855362
 20
111.827002
 30
0.0
  0
SPLINE
  5
1a4
100
AcDbEntity
  8
Layer_1
 62
7
100
AcDbSpline
 70
8
 71
3
 72
8
 73
4
 74
0
 40
0
 40
0
 40
0
 40
0
 40
1
 40
1
 40
1
 40
1
 10
210.855362
 20
111.827002
 30
0.0
 10
210.685239
 20
111.734868
 30
0.0
 10
210.492707
 20
111.671049
 30
0.0
 10
210.290918
 20
111.650613
 30
0.0
  0
SPLINE
  5
1a5
100
AcDbEntity
  8
Layer_1
 62
7
100
AcDbSpline
 70
8
 71
3
 72
8
 73
4
 74
0
 40
0
 40
0
 40
0
 40
0
 40
1
 40
1
 40
1
 40
1
 10
210.290918
 20
111.650613
 30
0.0
 10
210.240457
 20
111.645505
 30
0.0
 10
210.192789
 20
111.641808
 30
0.0
 10
210.140973
 20
111.641808
 30
0.0
  0
SPLINE
  5
1a6
100
AcDbEntity
  8
Layer_1
 62
7
100
AcDbSpline
 70
8
 71
3
 72
8
 73
4
 74
0
 40
0
 40
0
 40
0
 40
0
 40
1
 40
1
 40
1
 40
1
 10
210.140973
 20
111.641808
 30
0.0
 10
209.985554
 20
111.641808
 30
0.0
 10
209.832166
 20
111.668647
 30
0.0
 10
209.691196
 20
111.712364
 30
0.0
  0
SPLINE
  5
1a7
100
AcDbEntity
  8
Layer_1
 62
7
100
AcDbSpline
 70
8
 71
3
 72
8
 73
4
 74
0
 40
0
 40
0
 40
0
 40
0
 40
1
 40
1
 40
1
 40
1
 10
209.691196
 20
111.712364
 30
0.0
 10
209.644206
 20
111.726955
 30
0.0
 10
209.603792
 20
111.746355
 30
0.0
 10
209.558918
 20
111.765280
 30
0.0
  0
SPLINE
  5
1a8
100
AcDbEntity
  8
Layer_1
 62
7
100
AcDbSpline
 70
8
 71
3
 72
8
 73
4
 74
0
 40
0
 40
0
 40
0
 40
0
 40
1
 40
1
 40
1
 40
1
 10
209.558918
 20
111.765280
 30
0.0
 10
209.514017
 20
111.784189
 30
0.0
 10
209.469143
 20
111.803982
 30
0.0
 10
209.426612
 20
111.827016
 30
0.0
  0
SPLINE
  5
1a9
100
AcDbEntity
  8
Layer_1
 62
7
100
AcDbSpline
 70
8
 71
3
 72
8
 73
4
 74
0
 40
0
 40
0
 40
0
 40
0
 40
1
 40
1
 40
1
 40
1
 10
209.426612
 20
111.827016
 30
0.0
 10
209.384082
 20
111.850046
 30
0.0
 10
209.343075
 20
111.879501
 30
0.0
 10
209.303140
 20
111.906391
 30
0.0
  0
SPLINE
  5
1aa
100
AcDbEntity
  8
Layer_1
 62
7
100
AcDbSpline
 70
8
 71
3
 72
8
 73
4
 74
0
 40
0
 40
0
 40
0
 40
0
 40
1
 40
1
 40
1
 40
1
 10
209.303140
 20
111.906391
 30
0.0
 10
209.143459
 20
112.013949
 30
0.0
 10
209.005339
 20
112.135240
 30
0.0
 10
208.897446
 20
112.294447
 30
0.0
  0
SPLINE
  5
1ab
100
AcDbEntity
  8
Layer_1
 62
7
100
AcDbSpline
 70
8
 71
3
 72
8
 73
4
 74
0
 40
0
 40
0
 40
0
 40
0
 40
1
 40
1
 40
1
 40
1
 10
208.897446
 20
112.294447
 30
0.0
 10
208.816561
 20
112.413852
 30
0.0
 10
208.747275
 20
112.550761
 30
0.0
 10
208.703418
 20
112.691322
 30
0.0
  0
SPLINE
  5
1ac
100
AcDbEntity
  8
Layer_1
 62
7
100
AcDbSpline
 70
8
 71
3
 72
8
 73
4
 74
0
 40
0
 40
0
 40
0
 40
0
 40
1
 40
1
 40
1
 40
1
 10
208.703418
 20
112.691322
 30
0.0
 10
208.688742
 20
112.738177
 30
0.0
 10
208.678018
 20
112.783730
 30
0.0
 10
208.668140
 20
112.832433
 30
0.0
  0
SPLINE
  5
1ad
100
AcDbEntity
  8
Layer_1
 62
7
100
AcDbSpline
 70
8
 71
3
 72
8
 73
4
 74
0
 40
0
 40
0
 40
0
 40
0
 40
1
 40
1
 40
1
 40
1
 10
208.668140
 20
112.832433
 30
0.0
 10
208.658262
 20
112.881136
 30
0.0
 10
208.655722
 20
112.932063
 30
0.0
 10
208.650642
 20
112.982364
 30
0.0
  0
SPLINE
  5
1ae
100
AcDbEntity
  8
Layer_1
 62
7
100
AcDbSpline
 70
8
 71
3
 72
8
 73
4
 74
0
 40
0
 40
0
 40
0
 40
0
 40
1
 40
1
 40
1
 40
1
 10
208.650642
 20
112.982364
 30
0.0
 10
208.645562
 20
113.032664
 30
0.0
 10
208.641894
 20
113.089467
 30
0.0
 10
208.641894
 20
113.141114
 30
0.0
  0
SPLINE
  5
1af
100
AcDbEntity
  8
Layer_1
 62
7
100
AcDbSpline
 70
8
 71
3
 72
8
 73
4
 74
0
 40
0
 40
0
 40
0
 40
0
 40
1
 40
1
 40
1
 40
1
 10
208.641894
 20
113.141114
 30
0.0
 10
208.641894
 20
113.967503
 30
0.0
 10
209.312369
 20
114.640419
 30
0.0
 10
210.141171
 20
114.640419
 30
0.0
  0
LWPOLYLINE
  5
1b0
100
AcDbEntity
  8
Layer_1
 62
1
100
AcDbPolyline
 90
2
 70
0
 10
257.141105
 20
113.141125
 30
0.0
 10
257.141105
 20
113.141125
 30
0.0
  0
SPLINE
  5
1b1
100
AcDbEntity
  8
Layer_1
 62
7
100
AcDbSpline
 70
8
 71
3
 72
8
 73
4
 74
0
 40
0
 40
0
 40
0
 40
0
 40
1
 40
1
 40
1
 40
1
 10
51.136494
 20
177.146156
 30
0.0
 10
51.136494
 20
177.974583
 30
0.0
 10
51.807364
 20
178.645462
 30
0.0
 10
52.635799
 20
178.645462
 30
0.0
  0
SPLINE
  5
1b2
100
AcDbEntity
  8
Layer_1
 62
7
100
AcDbSpline
 70
8
 71
3
 72
8
 73
4
 74
0
 40
0
 40
0
 40
0
 40
0
 40
1
 40
1
 40
1
 40
1
 10
52.635799
 20
178.645462
 30
0.0
 10
53.464206
 20
178.645462
 30
0.0
 10
54.135105
 20
177.974583
 30
0.0
 10
54.135105
 20
177.146156
 30
0.0
  0
SPLINE
  5
1b3
100
AcDbEntity
  8
Layer_1
 62
7
100
AcDbSpline
 70
8
 71
3
 72
8
 73
4
 74
0
 40
0
 40
0
 40
0
 40
0
 40
1
 40
1
 40
1
 40
1
 10
54.135105
 20
177.146156
 30
0.0
 10
54.135105
 20
176.317729
 30
0.0
 10
53.464206
 20
175.646850
 30
0.0
 10
52.635799
 20
175.646850
 30
0.0
  0
SPLINE
  5
1b4
100
AcDbEntity
  8
Layer_1
 62
7
100
AcDbSpline
 70
8
 71
3
 72
8
 73
4
 74
0
 40
0
 40
0
 40
0
 40
0
 40
1
 40
1
 40
1
 40
1
 10
52.635799
 20
175.646850
 30
0.0
 10
51.807364
 20
175.646850
 30
0.0
 10
51.136494
 20
176.317729
 30
0.0
 10
51.136494
 20
177.146156
 30
0.0
  0
LWPOLYLINE
  5
1b5
100
AcDbEntity
  8
Layer_1
 62
7
100
AcDbPolyline
 90
2
 70
0
 10
210.141171
 20
114.640419
 30
0.0
 10
210.141058
 20
114.640405
 30
0.0
  0
LWPOLYLINE
  5
1b6
100
AcDbEntity
  8
Layer_1
 62
7
100
AcDbPolyline
 90
2
 70
0
 10
51.136494
 20
177.146156
 30
0.0
 10
51.136494
 20
177.146156
 30
0.0
  0
SPLINE
  5
1b7
100
AcDbEntity
  8
Layer_1
 62
1
100
AcDbSpline
 70
8
 71
3
 72
8
 73
4
 74
0
 40
0
 40
0
 40
0
 40
0
 40
1
 40
1
 40
1
 40
1
 10
104.141383
 20
51.144701
 30
0.0
 10
104.141383
 20
48.788173
 30
0.0
 10
102.507909
 20
46.822749
 30
0.0
 10
100.313772
 20
46.294006
 30
0.0
  0
LWPOLYLINE
  5
1b8
100
AcDbEntity
  8
Layer_1
 62
1
100
AcDbPolyline
 90
7
 70
0
 10
104.141383
 20
213.140279
 30
0.0
 10
104.141383
 20
181.143334
 30
0.0
 10
48.146744
 20
181.152140
 30
0.0
 10
48.146744
 20
173.152903
 30
0.0
 10
104.141383
 20
159.147626
 30
0.0
 10
104.141383
 20
155.143598
 30
0.0
 10
104.141383
 20
51.144701
 30
0.0
  0
SPLINE
  5
1b9
100
AcDbEntity
  8
Layer_1
 62
1
100
AcDbSpline
 70
8
 71
3
 72
8
 73
4
 74
0
 40
0
 40
0
 40
0
 40
0
 40
1
 40
1
 40
1
 40
1
 10
99.475911
 20
46.161729
 30
0.0
 10
99.364687
 20
46.154391
 30
0.0
 10
99.253858
 20
46.144231
 30
0.0
 10
99.140772
 20
46.144231
 30
0.0
  0
LWPOLYLINE
  5
1ba
100
AcDbEntity
  8
Layer_1
 62
1
100
AcDbPolyline
 90
2
 70
0
 10
100.313772
 20
46.294006
 30
0.0
 10
99.475911
 20
46.161729
 30
0.0
  0
SPLINE
  5
1bb
100
AcDbEntity
  8
Layer_1
 62
1
100
AcDbSpline
 70
8
 71
3
 72
8
 73
4
 74
0
 40
0
 40
0
 40
0
 40
0
 40
1
 40
1
 40
1
 40
1
 10
129.647216
 20
46.144220
 30
0.0
 10
126.885841
 20
46.144220
 30
0.0
 10
124.143883
 20
48.383399
 30
0.0
 10
124.143883
 20
51.144830
 30
0.0
  0
LWPOLYLINE
  5
1bc
100
AcDbEntity
  8
Layer_1
 62
1
100
AcDbPolyline
 90
8
 70
0
 10
99.140772
 20
46.144231
 30
0.0
 10
99.361272
 20
46.144231
 30
0.0
 10
3.141105
 20
31.142342
 30
0.0
 10
3.141105
 20
20.141113
 30
0.0
 10
223.141117
 20
20.141113
 30
0.0
 10
223.141117
 20
33.141113
 30
0.0
 10
129.141107
 20
46.141115
 30
0.0
 10
129.647216
 20
46.144220
 30
0.0
  0
SPLINE
  5
1bd
100
AcDbEntity
  8
Layer_1
 62
7
100
AcDbSpline
 70
8
 71
3
 72
8
 73
4
 74
0
 40
0
 40
0
 40
0
 40
0
 40
1
 40
1
 40
1
 40
1
 10
118.639562
 20
210.146925
 30
0.0
 10
119.416604
 20
210.146925
 30
0.0
 10
120.053213
 20
209.552074
 30
0.0
 10
120.130062
 20
208.797550
 30
0.0
  0
SPLINE
  5
1be
100
AcDbEntity
  8
Layer_1
 62
7
100
AcDbSpline
 70
8
 71
3
 72
8
 73
4
 74
0
 40
0
 40
0
 40
0
 40
0
 40
1
 40
1
 40
1
 40
1
 10
120.130062
 20
208.797550
 30
0.0
 10
120.135142
 20
208.747250
 30
0.0
 10
120.138811
 20
208.699269
 30
0.0
 10
120.138811
 20
208.647620
 30
0.0
  0
SPLINE
  5
1bf
100
AcDbEntity
  8
Layer_1
 62
7
100
AcDbSpline
 70
8
 71
3
 72
8
 73
4
 74
0
 40
0
 40
0
 40
0
 40
0
 40
1
 40
1
 40
1
 40
1
 10
120.138811
 20
208.647620
 30
0.0
 10
120.138811
 20
208.595973
 30
0.0
 10
120.135142
 20
208.539173
 30
0.0
 10
120.130062
 20
208.488870
 30
0.0
  0
SPLINE
  5
1c0
100
AcDbEntity
  8
Layer_1
 62
7
100
AcDbSpline
 70
8
 71
3
 72
8
 73
4
 74
0
 40
0
 40
0
 40
0
 40
0
 40
1
 40
1
 40
1
 40
1
 10
120.130062
 20
208.488870
 30
0.0
 10
120.124982
 20
208.438569
 30
0.0
 10
120.113693
 20
208.387642
 30
0.0
 10
120.103533
 20
208.338939
 30
0.0
  0
SPLINE
  5
1c1
100
AcDbEntity
  8
Layer_1
 62
7
100
AcDbSpline
 70
8
 71
3
 72
8
 73
4
 74
0
 40
0
 40
0
 40
0
 40
0
 40
1
 40
1
 40
1
 40
1
 10
120.103533
 20
208.338939
 30
0.0
 10
120.073533
 20
208.192830
 30
0.0
 10
120.022902
 20
208.051640
 30
0.0
 10
119.953588
 20
207.924425
 30
0.0
  0
SPLINE
  5
1c2
100
AcDbEntity
  8
Layer_1
 62
7
100
AcDbSpline
 70
8
 71
3
 72
8
 73
4
 74
0
 40
0
 40
0
 40
0
 40
0
 40
1
 40
1
 40
1
 40
1
 10
119.953588
 20
207.924425
 30
0.0
 10
119.930446
 20
207.882022
 30
0.0
 10
119.909985
 20
207.840758
 30
0.0
 10
119.883033
 20
207.800953
 30
0.0
  0
SPLINE
  5
1c3
100
AcDbEntity
  8
Layer_1
 62
7
100
AcDbSpline
 70
8
 71
3
 72
8
 73
4
 74
0
 40
0
 40
0
 40
0
 40
0
 40
1
 40
1
 40
1
 40
1
 10
119.883033
 20
207.800953
 30
0.0
 10
119.829100
 20
207.721350
 30
0.0
 10
119.765713
 20
207.648161
 30
0.0
 10
119.697810
 20
207.580467
 30
0.0
  0
SPLINE
  5
1c4
100
AcDbEntity
  8
Layer_1
 62
7
100
AcDbSpline
 70
8
 71
3
 72
8
 73
4
 74
0
 40
0
 40
0
 40
0
 40
0
 40
1
 40
1
 40
1
 40
1
 10
119.697810
 20
207.580467
 30
0.0
 10
119.596013
 20
207.478926
 30
0.0
 10
119.481459
 20
207.402628
 30
0.0
 10
119.353866
 20
207.333523
 30
0.0
  0
SPLINE
  5
1c5
100
AcDbEntity
  8
Layer_1
 62
7
100
AcDbSpline
 70
8
 71
3
 72
8
 73
4
 74
0
 40
0
 40
0
 40
0
 40
0
 40
1
 40
1
 40
1
 40
1
 10
119.353866
 20
207.333523
 30
0.0
 10
119.183743
 20
207.241388
 30
0.0
 10
118.991211
 20
207.177569
 30
0.0
 10
118.789422
 20
207.157134
 30
0.0
  0
SPLINE
  5
1c6
100
AcDbEntity
  8
Layer_1
 62
7
100
AcDbSpline
 70
8
 71
3
 72
8
 73
4
 74
0
 40
0
 40
0
 40
0
 40
0
 40
1
 40
1
 40
1
 40
1
 10
118.789422
 20
207.157134
 30
0.0
 10
118.738960
 20
207.152026
 30
0.0
 10
118.691293
 20
207.148328
 30
0.0
 10
118.639477
 20
207.148328
 30
0.0
  0
SPLINE
  5
1c7
100
AcDbEntity
  8
Layer_1
 62
7
100
AcDbSpline
 70
8
 71
3
 72
8
 73
4
 74
0
 40
0
 40
0
 40
0
 40
0
 40
1
 40
1
 40
1
 40
1
 10
118.639477
 20
207.148328
 30
0.0
 10
118.484057
 20
207.148328
 30
0.0
 10
118.330670
 20
207.175168
 30
0.0
 10
118.189700
 20
207.218884
 30
0.0
  0
SPLINE
  5
1c8
100
AcDbEntity
  8
Layer_1
 62
7
100
AcDbSpline
 70
8
 71
3
 72
8
 73
4
 74
0
 40
0
 40
0
 40
0
 40
0
 40
1
 40
1
 40
1
 40
1
 10
118.189700
 20
207.218884
 30
0.0
 10
118.142710
 20
207.233475
 30
0.0
 10
118.102295
 20
207.252875
 30
0.0
 10
118.057422
 20
207.271801
 30
0.0
  0
SPLINE
  5
1c9
100
AcDbEntity
  8
Layer_1
 62
7
100
AcDbSpline
 70
8
 71
3
 72
8
 73
4
 74
0
 40
0
 40
0
 40
0
 40
0
 40
1
 40
1
 40
1
 40
1
 10
118.057422
 20
207.271801
 30
0.0
 10
118.012520
 20
207.290710
 30
0.0
 10
117.967647
 20
207.310502
 30
0.0
 10
117.925116
 20
207.333537
 30
0.0
  0
SPLINE
  5
1ca
100
AcDbEntity
  8
Layer_1
 62
7
100
AcDbSpline
 70
8
 71
3
 72
8
 73
4
 74
0
 40
0
 40
0
 40
0
 40
0
 40
1
 40
1
 40
1
 40
1
 10
117.925116
 20
207.333537
 30
0.0
 10
117.882585
 20
207.356566
 30
0.0
 10
117.841578
 20
207.386022
 30
0.0
 10
117.801644
 20
207.412912
 30
0.0
  0
SPLINE
  5
1cb
100
AcDbEntity
  8
Layer_1
 62
7
100
AcDbSpline
 70
8
 71
3
 72
8
 73
4
 74
0
 40
0
 40
0
 40
0
 40
0
 40
1
 40
1
 40
1
 40
1
 10
117.801644
 20
207.412912
 30
0.0
 10
117.641963
 20
207.520469
 30
0.0
 10
117.503843
 20
207.641760
 30
0.0
 10
117.395950
 20
207.800967
 30
0.0
  0
SPLINE
  5
1cc
100
AcDbEntity
  8
Layer_1
 62
7
100
AcDbSpline
 70
8
 71
3
 72
8
 73
4
 74
0
 40
0
 40
0
 40
0
 40
0
 40
1
 40
1
 40
1
 40
1
 10
117.395950
 20
207.800967
 30
0.0
 10
117.315065
 20
207.920373
 30
0.0
 10
117.245779
 20
208.057282
 30
0.0
 10
117.201922
 20
208.197842
 30
0.0
  0
SPLINE
  5
1cd
100
AcDbEntity
  8
Layer_1
 62
7
100
AcDbSpline
 70
8
 71
3
 72
8
 73
4
 74
0
 40
0
 40
0
 40
0
 40
0
 40
1
 40
1
 40
1
 40
1
 10
117.201922
 20
208.197842
 30
0.0
 10
117.187246
 20
208.244697
 30
0.0
 10
117.176522
 20
208.290250
 30
0.0
 10
117.166644
 20
208.338953
 30
0.0
  0
SPLINE
  5
1ce
100
AcDbEntity
  8
Layer_1
 62
7
100
AcDbSpline
 70
8
 71
3
 72
8
 73
4
 74
0
 40
0
 40
0
 40
0
 40
0
 40
1
 40
1
 40
1
 40
1
 10
117.166644
 20
208.338953
 30
0.0
 10
117.156766
 20
208.387656
 30
0.0
 10
117.154226
 20
208.438583
 30
0.0
 10
117.149146
 20
208.488884
 30
0.0
  0
SPLINE
  5
1cf
100
AcDbEntity
  8
Layer_1
 62
7
100
AcDbSpline
 70
8
 71
3
 72
8
 73
4
 74
0
 40
0
 40
0
 40
0
 40
0
 40
1
 40
1
 40
1
 40
1
 10
117.149146
 20
208.488884
 30
0.0
 10
117.144066
 20
208.539184
 30
0.0
 10
117.140397
 20
208.595987
 30
0.0
 10
117.140397
 20
208.647634
 30
0.0
  0
SPLINE
  5
1d0
100
AcDbEntity
  8
Layer_1
 62
7
100
AcDbSpline
 70
8
 71
3
 72
8
 73
4
 74
0
 40
0
 40
0
 40
0
 40
0
 40
1
 40
1
 40
1
 40
1
 10
117.140397
 20
208.647634
 30
0.0
 10
117.140397
 20
209.474023
 30
0.0
 10
117.810873
 20
210.146940
 30
0.0
 10
118.639675
 20
210.146940
 30
0.0
  0
LWPOLYLINE
  5
1d1
100
AcDbEntity
  8
Layer_1
 62
1
100
AcDbPolyline
 90
4
 70
0
 10
124.143883
 20
51.144830
 30
0.0
 10
124.143883
 20
213.140394
 30
0.0
 10
104.141383
 20
213.140394
 30
0.0
 10
104.141383
 20
213.140279
 30
0.0
  0
SPLINE
  5
1d2
100
AcDbEntity
  8
Layer_1
 62
7
100
AcDbSpline
 70
8
 71
3
 72
8
 73
4
 74
0
 40
0
 40
0
 40
0
 40
0
 40
1
 40
1
 40
1
 40
1
 10
118.639562
 20
202.147689
 30
0.0
 10
119.468392
 20
202.147689
 30
0.0
 10
120.138867
 20
201.465950
 30
0.0
 10
120.138896
 20
200.639564
 30
0.0
  0
SPLINE
  5
1d3
100
AcDbEntity
  8
Layer_1
 62
7
100
AcDbSpline
 70
8
 71
3
 72
8
 73
4
 74
0
 40
0
 40
0
 40
0
 40
0
 40
1
 40
1
 40
1
 40
1
 10
120.138896
 20
200.639564
 30
0.0
 10
120.138896
 20
199.813184
 30
0.0
 10
119.468420
 20
199.149078
 30
0.0
 10
118.639562
 20
199.149078
 30
0.0
  0
SPLINE
  5
1d4
100
AcDbEntity
  8
Layer_1
 62
7
100
AcDbSpline
 70
8
 71
3
 72
8
 73
4
 74
0
 40
0
 40
0
 40
0
 40
0
 40
1
 40
1
 40
1
 40
1
 10
118.639562
 20
199.149078
 30
0.0
 10
117.810788
 20
199.149078
 30
0.0
 10
117.140256
 20
199.813184
 30
0.0
 10
117.140284
 20
200.639564
 30
0.0
  0
SPLINE
  5
1d5
100
AcDbEntity
  8
Layer_1
 62
7
100
AcDbSpline
 70
8
 71
3
 72
8
 73
4
 74
0
 40
0
 40
0
 40
0
 40
0
 40
1
 40
1
 40
1
 40
1
 10
117.140284
 20
200.639564
 30
0.0
 10
117.140284
 20
201.465950
 30
0.0
 10
117.810760
 20
202.147689
 30
0.0
 10
118.639562
 20
202.147689
 30
0.0
  0
LWPOLYLINE
  5
1d6
100
AcDbEntity
  8
Layer_1
 62
7
100
AcDbPolyline
 90
2
 70
0
 10
118.639675
 20
210.146940
 30
0.0
 10
118.639562
 20
210.146925
 30
0.0
  0
SPLINE
  5
1d7
100
AcDbEntity
  8
Layer_1
 62
7
100
AcDbSpline
 70
8
 71
3
 72
8
 73
4
 74
0
 40
0
 40
0
 40
0
 40
0
 40
1
 40
1
 40
1
 40
1
 10
118.639562
 20
62.147839
 30
0.0
 10
119.468392
 20
62.147839
 30
0.0
 10
120.138867
 20
61.466103
 30
0.0
 10
120.138896
 20
60.639700
 30
0.0
  0
SPLINE
  5
1d8
100
AcDbEntity
  8
Layer_1
 62
7
100
AcDbSpline
 70
8
 71
3
 72
8
 73
4
 74
0
 40
0
 40
0
 40
0
 40
0
 40
1
 40
1
 40
1
 40
1
 10
120.138896
 20
60.639700
 30
0.0
 10
120.138896
 20
59.813325
 30
0.0
 10
119.468420
 20
59.140395
 30
0.0
 10
118.639562
 20
59.140395
 30
0.0
  0
SPLINE
  5
1d9
100
AcDbEntity
  8
Layer_1
 62
7
100
AcDbSpline
 70
8
 71
3
 72
8
 73
4
 74
0
 40
0
 40
0
 40
0
 40
0
 40
1
 40
1
 40
1
 40
1
 10
118.639562
 20
59.140395
 30
0.0
 10
117.810788
 20
59.140395
 30
0.0
 10
117.140256
 20
59.813325
 30
0.0
 10
117.140284
 20
60.639700
 30
0.0
  0
SPLINE
  5
1da
100
AcDbEntity
  8
Layer_1
 62
7
100
AcDbSpline
 70
8
 71
3
 72
8
 73
4
 74
0
 40
0
 40
0
 40
0
 40
0
 40
1
 40
1
 40
1
 40
1
 10
117.140284
 20
60.639700
 30
0.0
 10
117.140284
 20
61.466103
 30
0.0
 10
117.810760
 20
62.147839
 30
0.0
 10
118.639562
 20
62.147839
 30
0.0
  0
LWPOLYLINE
  5
1db
100
AcDbEntity
  8
Layer_1
 62
7
100
AcDbPolyline
 90
2
 70
0
 10
118.639562
 20
202.147689
 30
0.0
 10
118.639562
 20
202.147689
 30
0.0
  0
SPLINE
  5
1dc
100
AcDbEntity
  8
Layer_1
 62
7
100
AcDbSpline
 70
8
 71
3
 72
8
 73
4
 74
0
 40
0
 40
0
 40
0
 40
0
 40
1
 40
1
 40
1
 40
1
 10
118.489645
 20
41.139923
 30
0.0
 10
118.540078
 20
41.145003
 30
0.0
 10
118.587802
 20
41.139923
 30
0.0
 10
118.639562
 20
41.139923
 30
0.0
  0
SPLINE
  5
1dd
100
AcDbEntity
  8
Layer_1
 62
7
100
AcDbSpline
 70
8
 71
3
 72
8
 73
4
 74
0
 40
0
 40
0
 40
0
 40
0
 40
1
 40
1
 40
1
 40
1
 10
118.639562
 20
41.139923
 30
0.0
 10
119.468025
 20
41.139923
 30
0.0
 10
120.138896
 20
40.469052
 30
0.0
 10
120.138896
 20
39.640617
 30
0.0
  0
SPLINE
  5
1de
100
AcDbEntity
  8
Layer_1
 62
7
100
AcDbSpline
 70
8
 71
3
 72
8
 73
4
 74
0
 40
0
 40
0
 40
0
 40
0
 40
1
 40
1
 40
1
 40
1
 10
120.138896
 20
39.640617
 30
0.0
 10
120.138896
 20
38.812182
 30
0.0
 10
119.468025
 20
38.141312
 30
0.0
 10
118.639562
 20
38.141312
 30
0.0
  0
SPLINE
  5
1df
100
AcDbEntity
  8
Layer_1
 62
7
100
AcDbSpline
 70
8
 71
3
 72
8
 73
4
 74
0
 40
0
 40
0
 40
0
 40
0
 40
1
 40
1
 40
1
 40
1
 10
118.639562
 20
38.141312
 30
0.0
 10
117.811127
 20
38.141312
 30
0.0
 10
117.140256
 20
38.812182
 30
0.0
 10
117.140284
 20
39.640617
 30
0.0
  0
SPLINE
  5
1e0
100
AcDbEntity
  8
Layer_1
 62
7
100
AcDbSpline
 70
8
 71
3
 72
8
 73
4
 74
0
 40
0
 40
0
 40
0
 40
0
 40
1
 40
1
 40
1
 40
1
 10
117.140284
 20
39.640617
 30
0.0
 10
117.140284
 20
40.417265
 30
0.0
 10
117.733318
 20
41.063158
 30
0.0
 10
118.489645
 20
41.139923
 30
0.0
  0
LWPOLYLINE
  5
1e1
100
AcDbEntity
  8
Layer_1
 62
7
100
AcDbPolyline
 90
2
 70
0
 10
118.639562
 20
62.147839
 30
0.0
 10
118.639562
 20
62.147839
 30
0.0
  0
SPLINE
  5
1e2
100
AcDbEntity
  8
Layer_1
 62
7
100
AcDbSpline
 70
8
 71
3
 72
8
 73
4
 74
0
 40
0
 40
0
 40
0
 40
0
 40
1
 40
1
 40
1
 40
1
 10
118.639562
 20
27.143450
 30
0.0
 10
119.468025
 20
27.143450
 30
0.0
 10
120.138896
 20
26.472580
 30
0.0
 10
120.138896
 20
25.644145
 30
0.0
  0
SPLINE
  5
1e3
100
AcDbEntity
  8
Layer_1
 62
7
100
AcDbSpline
 70
8
 71
3
 72
8
 73
4
 74
0
 40
0
 40
0
 40
0
 40
0
 40
1
 40
1
 40
1
 40
1
 10
120.138896
 20
25.644145
 30
0.0
 10
120.138896
 20
24.815710
 30
0.0
 10
119.468025
 20
24.144839
 30
0.0
 10
118.639562
 20
24.144839
 30
0.0
  0
SPLINE
  5
1e4
100
AcDbEntity
  8
Layer_1
 62
7
100
AcDbSpline
 70
8
 71
3
 72
8
 73
4
 74
0
 40
0
 40
0
 40
0
 40
0
 40
1
 40
1
 40
1
 40
1
 10
118.639562
 20
24.144839
 30
0.0
 10
117.811127
 20
24.144839
 30
0.0
 10
117.140256
 20
24.815710
 30
0.0
 10
117.140284
 20
25.644145
 30
0.0
  0
SPLINE
  5
1e5
100
AcDbEntity
  8
Layer_1
 62
7
100
AcDbSpline
 70
8
 71
3
 72
8
 73
4
 74
0
 40
0
 40
0
 40
0
 40
0
 40
1
 40
1
 40
1
 40
1
 10
117.140284
 20
25.644145
 30
0.0
 10
117.140284
 20
26.472580
 30
0.0
 10
117.811127
 20
27.143450
 30
0.0
 10
118.639562
 20
27.143450
 30
0.0
  0
LWPOLYLINE
  5
1e6
100
AcDbEntity
  8
Layer_1
 62
7
100
AcDbPolyline
 90
2
 70
0
 10
118.489645
 20
41.139923
 30
0.0
 10
118.489645
 20
41.139923
 30
0.0
  0
LWPOLYLINE
  5
1e7
100
AcDbEntity
  8
Layer_1
 62
7
100
AcDbPolyline
 90
2
 70
0
 10
118.639562
 20
27.143450
 30
0.0
 10
118.639562
 20
27.143450
 30
0.0
  0
SPLINE
  5
1e8
100
AcDbEntity
  8
Layer_1
 62
7
100
AcDbSpline
 70
8
 71
3
 72
8
 73
4
 74
0
 40
0
 40
0
 40
0
 40
0
 40
1
 40
1
 40
1
 40
1
 10
206.740111
 20
27.145093
 30
0.0
 10
206.795511
 20
27.145093
 30
0.0
 10
206.840102
 20
27.100502
 30
0.0
 10
206.840102
 20
27.045102
 30
0.0
  0
LWPOLYLINE
  5
1e9
100
AcDbEntity
  8
Layer_1
 62
7
100
AcDbPolyline
 90
2
 70
0
 10
202.240106
 20
27.145093
 30
0.0
 10
206.740111
 20
27.145093
 30
0.0
  0
SPLINE
  5
1ea
100
AcDbEntity
  8
Layer_1
 62
7
100
AcDbSpline
 70
8
 71
3
 72
8
 73
4
 74
0
 40
0
 40
0
 40
0
 40
0
 40
1
 40
1
 40
1
 40
1
 10
206.840102
 20
19.245100
 30
0.0
 10
206.840102
 20
19.189700
 30
0.0
 10
206.795511
 20
19.145109
 30
0.0
 10
206.740111
 20
19.145109
 30
0.0
  0
LWPOLYLINE
  5
1eb
100
AcDbEntity
  8
Layer_1
 62
7
100
AcDbPolyline
 90
2
 70
0
 10
206.840102
 20
27.045102
 30
0.0
 10
206.840102
 20
19.245100
 30
0.0
  0
SPLINE
  5
1ec
100
AcDbEntity
  8
Layer_1
 62
7
100
AcDbSpline
 70
8
 71
3
 72
8
 73
4
 74
0
 40
0
 40
0
 40
0
 40
0
 40
1
 40
1
 40
1
 40
1
 10
202.240106
 20
19.145109
 30
0.0
 10
202.184706
 20
19.145109
 30
0.0
 10
202.140114
 20
19.189700
 30
0.0
 10
202.140114
 20
19.245100
 30
0.0
  0
LWPOLYLINE
  5
1ed
100
AcDbEntity
  8
Layer_1
 62
7
100
AcDbPolyline
 90
2
 70
0
 10
206.740111
 20
19.145109
 30
0.0
 10
202.240106
 20
19.145109
 30
0.0
  0
SPLINE
  5
1ee
100
AcDbEntity
  8
Layer_1
 62
7
100
AcDbSpline
 70
8
 71
3
 72
8
 73
4
 74
0
 40
0
 40
0
 40
0
 40
0
 40
1
 40
1
 40
1
 40
1
 10
202.140114
 20
27.045102
 30
0.0
 10
202.140114
 20
27.100502
 30
0.0
 10
202.184706
 20
27.145093
 30
0.0
 10
202.240106
 20
27.145093
 30
0.0
  0
LWPOLYLINE
  5
1ef
100
AcDbEntity
  8
Layer_1
 62
7
100
AcDbPolyline
 90
2
 70
0
 10
202.140114
 20
19.245100
 30
0.0
 10
202.140114
 20
27.045102
 30
0.0
  0
LWPOLYLINE
  5
1f0
100
AcDbEntity
  8
Layer_1
 62
7
100
AcDbPolyline
 90
2
 70
0
 10
202.240106
 20
27.145093
 30
0.0
 10
202.240106
 20
27.145093
 30
0.0
  0
SPLINE
  5
1f1
100
AcDbEntity
  8
Layer_1
 62
7
100
AcDbSpline
 70
8
 71
3
 72
8
 73
4
 74
0
 40
0
 40
0
 40
0
 40
0
 40
1
 40
1
 40
1
 40
1
 10
195.740133
 20
27.145093
 30
0.0
 10
195.795533
 20
27.145093
 30
0.0
 10
195.840124
 20
27.100502
 30
0.0
 10
195.840124
 20
27.045102
 30
0.0
  0
LWPOLYLINE
  5
1f2
100
AcDbEntity
  8
Layer_1
 62
7
100
AcDbPolyline
 90
2
 70
0
 10
191.240128
 20
27.145093
 30
0.0
 10
195.740133
 20
27.145093
 30
0.0
  0
SPLINE
  5
1f3
100
AcDbEntity
  8
Layer_1
 62
7
100
AcDbSpline
 70
8
 71
3
 72
8
 73
4
 74
0
 40
0
 40
0
 40
0
 40
0
 40
1
 40
1
 40
1
 40
1
 10
195.840124
 20
19.245100
 30
0.0
 10
195.840124
 20
19.189700
 30
0.0
 10
195.795533
 20
19.145109
 30
0.0
 10
195.740133
 20
19.145109
 30
0.0
  0
LWPOLYLINE
  5
1f4
100
AcDbEntity
  8
Layer_1
 62
7
100
AcDbPolyline
 90
2
 70
0
 10
195.840124
 20
27.045102
 30
0.0
 10
195.840124
 20
19.245100
 30
0.0
  0
SPLINE
  5
1f5
100
AcDbEntity
  8
Layer_1
 62
7
100
AcDbSpline
 70
8
 71
3
 72
8
 73
4
 74
0
 40
0
 40
0
 40
0
 40
0
 40
1
 40
1
 40
1
 40
1
 10
191.240128
 20
19.145109
 30
0.0
 10
191.184728
 20
19.145109
 30
0.0
 10
191.140136
 20
19.189700
 30
0.0
 10
191.140136
 20
19.245100
 30
0.0
  0
LWPOLYLINE
  5
1f6
100
AcDbEntity
  8
Layer_1
 62
7
100
AcDbPolyline
 90
2
 70
0
 10
195.740133
 20
19.145109
 30
0.0
 10
191.240128
 20
19.145109
 30
0.0
  0
SPLINE
  5
1f7
100
AcDbEntity
  8
Layer_1
 62
7
100
AcDbSpline
 70
8
 71
3
 72
8
 73
4
 74
0
 40
0
 40
0
 40
0
 40
0
 40
1
 40
1
 40
1
 40
1
 10
191.140136
 20
27.045102
 30
0.0
 10
191.140136
 20
27.100502
 30
0.0
 10
191.184728
 20
27.145093
 30
0.0
 10
191.240128
 20
27.145093
 30
0.0
  0
LWPOLYLINE
  5
1f8
100
AcDbEntity
  8
Layer_1
 62
7
100
AcDbPolyline
 90
2
 70
0
 10
191.140136
 20
19.245100
 30
0.0
 10
191.140136
 20
27.045102
 30
0.0
  0
LWPOLYLINE
  5
1f9
100
AcDbEntity
  8
Layer_1
 62
7
100
AcDbPolyline
 90
2
 70
0
 10
191.240128
 20
27.145093
 30
0.0
 10
191.240128
 20
27.145093
 30
0.0
  0
SPLINE
  5
1fa
100
AcDbEntity
  8
Layer_1
 62
7
100
AcDbSpline
 70
8
 71
3
 72
8
 73
4
 74
0
 40
0
 40
0
 40
0
 40
0
 40
1
 40
1
 40
1
 40
1
 10
32.742124
 20
27.141094
 30
0.0
 10
32.797524
 20
27.141094
 30
0.0
 10
32.842115
 20
27.096503
 30
0.0
 10
32.842115
 20
27.041102
 30
0.0
  0
LWPOLYLINE
  5
1fb
100
AcDbEntity
  8
Layer_1
 62
7
100
AcDbPolyline
 90
2
 70
0
 10
28.242119
 20
27.141094
 30
0.0
 10
32.742124
 20
27.141094
 30
0.0
  0
SPLINE
  5
1fc
100
AcDbEntity
  8
Layer_1
 62
7
100
AcDbSpline
 70
8
 71
3
 72
8
 73
4
 74
0
 40
0
 40
0
 40
0
 40
0
 40
1
 40
1
 40
1
 40
1
 10
32.842115
 20
19.241101
 30
0.0
 10
32.842115
 20
19.185701
 30
0.0
 10
32.797524
 20
19.141110
 30
0.0
 10
32.742124
 20
19.141110
 30
0.0
  0
LWPOLYLINE
  5
1fd
100
AcDbEntity
  8
Layer_1
 62
7
100
AcDbPolyline
 90
2
 70
0
 10
32.842115
 20
27.041102
 30
0.0
 10
32.842115
 20
19.241101
 30
0.0
  0
SPLINE
  5
1fe
100
AcDbEntity
  8
Layer_1
 62
7
100
AcDbSpline
 70
8
 71
3
 72
8
 73
4
 74
0
 40
0
 40
0
 40
0
 40
0
 40
1
 40
1
 40
1
 40
1
 10
28.242119
 20
19.141110
 30
0.0
 10
28.186719
 20
19.141110
 30
0.0
 10
28.142128
 20
19.185701
 30
0.0
 10
28.142128
 20
19.241101
 30
0.0
  0
LWPOLYLINE
  5
1ff
100
AcDbEntity
  8
Layer_1
 62
7
100
AcDbPolyline
 90
2
 70
0
 10
32.742124
 20
19.141110
 30
0.0
 10
28.242119
 20
19.141110
 30
0.0
  0
SPLINE
  5
200
100
AcDbEntity
  8
Layer_1
 62
7
100
AcDbSpline
 70
8
 71
3
 72
8
 73
4
 74
0
 40
0
 40
0
 40
0
 40
0
 40
1
 40
1
 40
1
 40
1
 10
28.142128
 20
27.041102
 30
0.0
 10
28.142128
 20
27.096503
 30
0.0
 10
28.186719
 20
27.141094
 30
0.0
 10
28.242119
 20
27.141094
 30
0.0
  0
LWPOLYLINE
  5
201
100
AcDbEntity
  8
Layer_1
 62
7
100
AcDbPolyline
 90
2
 70
0
 10
28.142128
 20
19.241101
 30
0.0
 10
28.142128
 20
27.041102
 30
0.0
  0
LWPOLYLINE
  5
202
100
AcDbEntity
  8
Layer_1
 62
7
100
AcDbPolyline
 90
2
 70
0
 10
28.242119
 20
27.141094
 30
0.0
 10
28.242119
 20
27.141094
 30
0.0
  0
SPLINE
  5
203
100
AcDbEntity
  8
Layer_1
 62
7
100
AcDbSpline
 70
8
 71
3
 72
8
 73
4
 74
0
 40
0
 40
0
 40
0
 40
0
 40
1
 40
1
 40
1
 40
1
 10
21.742146
 20
27.141094
 30
0.0
 10
21.797546
 20
27.141094
 30
0.0
 10
21.842137
 20
27.096503
 30
0.0
 10
21.842137
 20
27.041102
 30
0.0
  0
LWPOLYLINE
  5
204
100
AcDbEntity
  8
Layer_1
 62
7
100
AcDbPolyline
 90
2
 70
0
 10
17.242141
 20
27.141094
 30
0.0
 10
21.742146
 20
27.141094
 30
0.0
  0
SPLINE
  5
205
100
AcDbEntity
  8
Layer_1
 62
7
100
AcDbSpline
 70
8
 71
3
 72
8
 73
4
 74
0
 40
0
 40
0
 40
0
 40
0
 40
1
 40
1
 40
1
 40
1
 10
21.842137
 20
19.241101
 30
0.0
 10
21.842137
 20
19.185701
 30
0.0
 10
21.797546
 20
19.141110
 30
0.0
 10
21.742146
 20
19.141110
 30
0.0
  0
LWPOLYLINE
  5
206
100
AcDbEntity
  8
Layer_1
 62
7
100
AcDbPolyline
 90
2
 70
0
 10
21.842137
 20
27.041102
 30
0.0
 10
21.842137
 20
19.241101
 30
0.0
  0
SPLINE
  5
207
100
AcDbEntity
  8
Layer_1
 62
7
100
AcDbSpline
 70
8
 71
3
 72
8
 73
4
 74
0
 40
0
 40
0
 40
0
 40
0
 40
1
 40
1
 40
1
 40
1
 10
17.242141
 20
19.141110
 30
0.0
 10
17.186741
 20
19.141110
 30
0.0
 10
17.142150
 20
19.185701
 30
0.0
 10
17.142150
 20
19.241101
 30
0.0
  0
LWPOLYLINE
  5
208
100
AcDbEntity
  8
Layer_1
 62
7
100
AcDbPolyline
 90
2
 70
0
 10
21.742146
 20
19.141110
 30
0.0
 10
17.242141
 20
19.141110
 30
0.0
  0
SPLINE
  5
209
100
AcDbEntity
  8
Layer_1
 62
7
100
AcDbSpline
 70
8
 71
3
 72
8
 73
4
 74
0
 40
0
 40
0
 40
0
 40
0
 40
1
 40
1
 40
1
 40
1
 10
17.142150
 20
27.041102
 30
0.0
 10
17.142150
 20
27.096503
 30
0.0
 10
17.186741
 20
27.141094
 30
0.0
 10
17.242141
 20
27.141094
 30
0.0
  0
LWPOLYLINE
  5
20a
100
AcDbEntity
  8
Layer_1
 62
7
100
AcDbPolyline
 90
2
 70
0
 10
17.142150
 20
19.241101
 30
0.0
 10
17.142150
 20
27.041102
 30
0.0
  0
LWPOLYLINE
  5
20b
100
AcDbEntity
  8
Layer_1
 62
7
100
AcDbPolyline
 90
2
 70
0
 10
17.242141
 20
27.141094
 30
0.0
 10
17.242141
 20
27.141094
 30
0.0
  0
LWPOLYLINE
  5
20c
100
AcDbEntity
  8
Layer_1
 62
1
100
AcDbPolyline
 90
7
 70
0
 10
0.141111
 20
212.141110
 30
0.0
 10
0.141111
 20
222.141119
 30
0.0
 10
30.141108
 20
225.141113
 30
0.0
 10
60.141104
 20
225.141113
 30
0.0
 10
90.141129
 20
222.141119
 30
0.0
 10
90.141129
 20
212.141110
 30
0.0
 10
0.141111
 20
212.141110
 30
0.0
  0
LWPOLYLINE
  5
20d
100
AcDbEntity
  8
Layer_1
 62
7
100
AcDbPolyline
 90
5
 70
0
 10
37.139090
 20
227.144831
 30
0.0
 10
41.839106
 20
227.144831
 30
0.0
 10
41.839106
 20
219.144830
 30
0.0
 10
37.139090
 20
219.144830
 30
0.0
 10
37.139090
 20
227.144831
 30
0.0
  0
SPLINE
  5
20e
100
AcDbEntity
  8
Layer_1
 62
7
100
AcDbSpline
 70
8
 71
3
 72
8
 73
4
 74
0
 40
0
 40
0
 40
0
 40
0
 40
1
 40
1
 40
1
 40
1
 10
53.039095
 20
227.144831
 30
0.0
 10
53.094495
 20
227.144831
 30
0.0
 10
53.139086
 20
227.100232
 30
0.0
 10
53.139086
 20
227.044831
 30
0.0
  0
LWPOLYLINE
  5
20f
100
AcDbEntity
  8
Layer_1
 62
7
100
AcDbPolyline
 90
2
 70
0
 10
48.539090
 20
227.144831
 30
0.0
 10
53.039095
 20
227.144831
 30
0.0
  0
SPLINE
  5
210
100
AcDbEntity
  8
Layer_1
 62
7
100
AcDbSpline
 70
8
 71
3
 72
8
 73
4
 74
0
 40
0
 40
0
 40
0
 40
0
 40
1
 40
1
 40
1
 40
1
 10
53.139086
 20
219.244830
 30
0.0
 10
53.139086
 20
219.189430
 30
0.0
 10
53.094495
 20
219.144830
 30
0.0
 10
53.039095
 20
219.144830
 30
0.0
  0
LWPOLYLINE
  5
211
100
AcDbEntity
  8
Layer_1
 62
7
100
AcDbPolyline
 90
2
 70
0
 10
53.139086
 20
227.044831
 30
0.0
 10
53.139086
 20
219.244830
 30
0.0
  0
SPLINE
  5
212
100
AcDbEntity
  8
Layer_1
 62
7
100
AcDbSpline
 70
8
 71
3
 72
8
 73
4
 74
0
 40
0
 40
0
 40
0
 40
0
 40
1
 40
1
 40
1
 40
1
 10
48.539090
 20
219.144830
 30
0.0
 10
48.483689
 20
219.144830
 30
0.0
 10
48.439098
 20
219.189430
 30
0.0
 10
48.439098
 20
219.244830
 30
0.0
  0
LWPOLYLINE
  5
213
100
AcDbEntity
  8
Layer_1
 62
7
100
AcDbPolyline
 90
2
 70
0
 10
53.039095
 20
219.144830
 30
0.0
 10
48.539090
 20
219.144830
 30
0.0
  0
SPLINE
  5
214
100
AcDbEntity
  8
Layer_1
 62
7
100
AcDbSpline
 70
8
 71
3
 72
8
 73
4
 74
0
 40
0
 40
0
 40
0
 40
0
 40
1
 40
1
 40
1
 40
1
 10
48.439098
 20
227.044831
 30
0.0
 10
48.439098
 20
227.100232
 30
0.0
 10
48.483689
 20
227.144831
 30
0.0
 10
48.539090
 20
227.144831
 30
0.0
  0
LWPOLYLINE
  5
215
100
AcDbEntity
  8
Layer_1
 62
7
100
AcDbPolyline
 90
2
 70
0
 10
48.439098
 20
219.244830
 30
0.0
 10
48.439098
 20
227.044831
 30
0.0
  0
SPLINE
  5
216
100
AcDbEntity
  8
Layer_1
 62
7
100
AcDbSpline
 70
8
 71
3
 72
8
 73
4
 74
0
 40
0
 40
0
 40
0
 40
0
 40
1
 40
1
 40
1
 40
1
 10
46.507993
 20
215.487377
 30
0.0
 10
46.512790
 20
215.543821
 30
0.0
 10
46.507993
 20
215.600266
 30
0.0
 10
46.507993
 20
215.628488
 30
0.0
  0
SPLINE
  5
217
100
AcDbEntity
  8
Layer_1
 62
7
100
AcDbSpline
 70
8
 71
3
 72
8
 73
4
 74
0
 40
0
 40
0
 40
0
 40
0
 40
1
 40
1
 40
1
 40
1
 10
46.507993
 20
215.628488
 30
0.0
 10
46.507993
 20
216.390488
 30
0.0
 10
45.895006
 20
217.011377
 30
0.0
 10
45.138030
 20
217.011377
 30
0.0
  0
SPLINE
  5
218
100
AcDbEntity
  8
Layer_1
 62
7
100
AcDbSpline
 70
8
 71
3
 72
8
 73
4
 74
0
 40
0
 40
0
 40
0
 40
0
 40
1
 40
1
 40
1
 40
1
 10
45.138030
 20
217.011377
 30
0.0
 10
44.381053
 20
217.011377
 30
0.0
 10
43.768066
 20
216.390488
 30
0.0
 10
43.768066
 20
215.628488
 30
0.0
  0
SPLINE
  5
219
100
AcDbEntity
  8
Layer_1
 62
7
100
AcDbSpline
 70
8
 71
3
 72
8
 73
4
 74
0
 40
0
 40
0
 40
0
 40
0
 40
1
 40
1
 40
1
 40
1
 10
43.768066
 20
215.628488
 30
0.0
 10
43.768066
 20
214.894710
 30
0.0
 10
44.381053
 20
214.273821
 30
0.0
 10
45.138030
 20
214.273821
 30
0.0
  0
SPLINE
  5
21a
100
AcDbEntity
  8
Layer_1
 62
7
100
AcDbSpline
 70
8
 71
3
 72
8
 73
4
 74
0
 40
0
 40
0
 40
0
 40
0
 40
1
 40
1
 40
1
 40
1
 10
45.138030
 20
214.273821
 30
0.0
 10
45.847649
 20
214.273821
 30
0.0
 10
46.437776
 20
214.810044
 30
0.0
 10
46.507993
 20
215.487377
 30
0.0
  0
LWPOLYLINE
  5
21b
100
AcDbEntity
  8
Layer_1
 62
7
100
AcDbPolyline
 90
2
 70
0
 10
48.539090
 20
227.144831
 30
0.0
 10
48.539090
 20
227.144831
 30
0.0
  0
LWPOLYLINE
  5
21c
100
AcDbEntity
  8
Layer_1
 62
7
100
AcDbPolyline
 90
2
 70
0
 10
46.507993
 20
215.487377
 30
0.0
 10
46.507993
 20
215.487377
 30
0.0
  0
LWPOLYLINE
  5
21d
100
AcDbEntity
  8
Layer_1
 62
1
100
AcDbPolyline
 90
7
 70
0
 10
164.141122
 20
163.141110
 30
0.0
 10
164.141122
 20
173.141118
 30
0.0
 10
204.141098
 20
177.141110
 30
0.0
 10
234.141095
 20
177.141110
 30
0.0
 10
274.141071
 20
173.141118
 30
0.0
 10
274.141071
 20
163.141110
 30
0.0
 10
164.141122
 20
163.141110
 30
0.0
  0
SPLINE
  5
21e
100
AcDbEntity
  8
Layer_1
 62
7
100
AcDbSpline
 70
8
 71
3
 72
8
 73
4
 74
0
 40
0
 40
0
 40
0
 40
0
 40
1
 40
1
 40
1
 40
1
 10
227.039085
 20
178.144833
 30
0.0
 10
227.094486
 20
178.144833
 30
0.0
 10
227.139077
 20
178.100234
 30
0.0
 10
227.139077
 20
178.044833
 30
0.0
  0
LWPOLYLINE
  5
21f
100
AcDbEntity
  8
Layer_1
 62
7
100
AcDbPolyline
 90
2
 70
0
 10
222.539080
 20
178.144833
 30
0.0
 10
227.039085
 20
178.144833
 30
0.0
  0
SPLINE
  5
220
100
AcDbEntity
  8
Layer_1
 62
7
100
AcDbSpline
 70
8
 71
3
 72
8
 73
4
 74
0
 40
0
 40
0
 40
0
 40
0
 40
1
 40
1
 40
1
 40
1
 10
227.139077
 20
170.244835
 30
0.0
 10
227.139077
 20
170.189435
 30
0.0
 10
227.094486
 20
170.144835
 30
0.0
 10
227.039085
 20
170.144835
 30
0.0
  0
LWPOLYLINE
  5
221
100
AcDbEntity
  8
Layer_1
 62
7
100
AcDbPolyline
 90
2
 70
0
 10
227.139077
 20
178.044833
 30
0.0
 10
227.139077
 20
170.244835
 30
0.0
  0
SPLINE
  5
222
100
AcDbEntity
  8
Layer_1
 62
7
100
AcDbSpline
 70
8
 71
3
 72
8
 73
4
 74
0
 40
0
 40
0
 40
0
 40
0
 40
1
 40
1
 40
1
 40
1
 10
222.539080
 20
170.144835
 30
0.0
 10
222.483680
 20
170.144835
 30
0.0
 10
222.439089
 20
170.189435
 30
0.0
 10
222.439089
 20
170.244835
 30
0.0
  0
LWPOLYLINE
  5
223
100
AcDbEntity
  8
Layer_1
 62
7
100
AcDbPolyline
 90
2
 70
0
 10
227.039085
 20
170.144835
 30
0.0
 10
222.539080
 20
170.144835
 30
0.0
  0
SPLINE
  5
224
100
AcDbEntity
  8
Layer_1
 62
7
100
AcDbSpline
 70
8
 71
3
 72
8
 73
4
 74
0
 40
0
 40
0
 40
0
 40
0
 40
1
 40
1
 40
1
 40
1
 10
222.439089
 20
178.044833
 30
0.0
 10
222.439089
 20
178.100234
 30
0.0
 10
222.483680
 20
178.144833
 30
0.0
 10
222.539080
 20
178.144833
 30
0.0
  0
LWPOLYLINE
  5
225
100
AcDbEntity
  8
Layer_1
 62
7
100
AcDbPolyline
 90
2
 70
0
 10
222.439089
 20
170.244835
 30
0.0
 10
222.439089
 20
178.044833
 30
0.0
  0
LWPOLYLINE
  5
226
100
AcDbEntity
  8
Layer_1
 62
7
100
AcDbPolyline
 90
2
 70
0
 10
222.539080
 20
178.144833
 30
0.0
 10
222.539080
 20
178.144833
 30
0.0
  0
SPLINE
  5
227
100
AcDbEntity
  8
Layer_1
 62
7
100
AcDbSpline
 70
8
 71
3
 72
8
 73
4
 74
0
 40
0
 40
0
 40
0
 40
0
 40
1
 40
1
 40
1
 40
1
 10
220.507983
 20
166.487376
 30
0.0
 10
220.512781
 20
166.543821
 30
0.0
 10
220.507983
 20
166.600265
 30
0.0
 10
220.507983
 20
166.628487
 30
0.0
  0
SPLINE
  5
228
100
AcDbEntity
  8
Layer_1
 62
7
100
AcDbSpline
 70
8
 71
3
 72
8
 73
4
 74
0
 40
0
 40
0
 40
0
 40
0
 40
1
 40
1
 40
1
 40
1
 10
220.507983
 20
166.628487
 30
0.0
 10
220.507983
 20
167.390487
 30
0.0
 10
219.894997
 20
168.011376
 30
0.0
 10
219.138020
 20
168.011376
 30
0.0
  0
SPLINE
  5
229
100
AcDbEntity
  8
Layer_1
 62
7
100
AcDbSpline
 70
8
 71
3
 72
8
 73
4
 74
0
 40
0
 40
0
 40
0
 40
0
 40
1
 40
1
 40
1
 40
1
 10
219.138020
 20
168.011376
 30
0.0
 10
218.381044
 20
168.011376
 30
0.0
 10
217.768057
 20
167.390487
 30
0.0
 10
217.768057
 20
166.628487
 30
0.0
  0
SPLINE
  5
22a
100
AcDbEntity
  8
Layer_1
 62
7
100
AcDbSpline
 70
8
 71
3
 72
8
 73
4
 74
0
 40
0
 40
0
 40
0
 40
0
 40
1
 40
1
 40
1
 40
1
 10
217.768057
 20
166.628487
 30
0.0
 10
217.768057
 20
165.894710
 30
0.0
 10
218.381044
 20
165.273821
 30
0.0
 10
219.138020
 20
165.273821
 30
0.0
  0
SPLINE
  5
22b
100
AcDbEntity
  8
Layer_1
 62
7
100
AcDbSpline
 70
8
 71
3
 72
8
 73
4
 74
0
 40
0
 40
0
 40
0
 40
0
 40
1
 40
1
 40
1
 40
1
 10
219.138020
 20
165.273821
 30
0.0
 10
219.847640
 20
165.273821
 30
0.0
 10
220.437766
 20
165.810043
 30
0.0
 10
220.507983
 20
166.487376
 30
0.0
  0
LWPOLYLINE
  5
22c
100
AcDbEntity
  8
Layer_1
 62
7
100
AcDbPolyline
 90
5
 70
0
 10
211.139080
 20
178.144833
 30
0.0
 10
215.839096
 20
178.144833
 30
0.0
 10
215.839096
 20
170.144835
 30
0.0
 10
211.139080
 20
170.144835
 30
0.0
 10
211.139080
 20
178.144833
 30
0.0
  0
LWPOLYLINE
  5
22d
100
AcDbEntity
  8
Layer_1
 62
7
100
AcDbPolyline
 90
2
 70
0
 10
220.507983
 20
166.487376
 30
0.0
 10
220.507983
 20
166.487376
 30
0.0
  0
SPLINE
  5
22e
100
AcDbEntity
  8
Layer_1
 62
7
100
AcDbSpline
 70
8
 71
3
 72
8
 73
4
 74
0
 40
0
 40
0
 40
0
 40
0
 40
1
 40
1
 40
1
 40
1
 10
234.508012
 20
33.487374
 30
0.0
 10
234.512810
 20
33.543819
 30
0.0
 10
234.508012
 20
33.600263
 30
0.0
 10
234.508012
 20
33.628485
 30
0.0
  0
SPLINE
  5
22f
100
AcDbEntity
  8
Layer_1
 62
7
100
AcDbSpline
 70
8
 71
3
 72
8
 73
4
 74
0
 40
0
 40
0
 40
0
 40
0
 40
1
 40
1
 40
1
 40
1
 10
234.508012
 20
33.628485
 30
0.0
 10
234.508012
 20
34.390485
 30
0.0
 10
233.895025
 20
35.011374
 30
0.0
 10
233.138049
 20
35.011374
 30
0.0
  0
SPLINE
  5
230
100
AcDbEntity
  8
Layer_1
 62
7
100
AcDbSpline
 70
8
 71
3
 72
8
 73
4
 74
0
 40
0
 40
0
 40
0
 40
0
 40
1
 40
1
 40
1
 40
1
 10
233.138049
 20
35.011374
 30
0.0
 10
232.381072
 20
35.011374
 30
0.0
 10
231.768086
 20
34.390485
 30
0.0
 10
231.768086
 20
33.628485
 30
0.0
  0
SPLINE
  5
231
100
AcDbEntity
  8
Layer_1
 62
7
100
AcDbSpline
 70
8
 71
3
 72
8
 73
4
 74
0
 40
0
 40
0
 40
0
 40
0
 40
1
 40
1
 40
1
 40
1
 10
231.768086
 20
33.628485
 30
0.0
 10
231.768086
 20
32.894707
 30
0.0
 10
232.381072
 20
32.273819
 30
0.0
 10
233.138049
 20
32.273819
 30
0.0
  0
SPLINE
  5
232
100
AcDbEntity
  8
Layer_1
 62
7
100
AcDbSpline
 70
8
 71
3
 72
8
 73
4
 74
0
 40
0
 40
0
 40
0
 40
0
 40
1
 40
1
 40
1
 40
1
 10
233.138049
 20
32.273819
 30
0.0
 10
233.847668
 20
32.273819
 30
0.0
 10
234.437795
 20
32.810041
 30
0.0
 10
234.508012
 20
33.487374
 30
0.0
  0
LWPOLYLINE
  5
233
100
AcDbEntity
  8
Layer_1
 62
1
100
AcDbPolyline
 90
5
 70
0
 10
225.141169
 20
37.141108
 30
0.0
 10
241.141165
 20
37.141108
 30
0.0
 10
241.141165
 20
30.141108
 30
0.0
 10
225.141169
 20
30.141108
 30
0.0
 10
225.141169
 20
37.141108
 30
0.0
  0
LWPOLYLINE
  5
234
100
AcDbEntity
  8
Layer_1
 62
7
100
AcDbPolyline
 90
2
 70
0
 10
234.508012
 20
33.487374
 30
0.0
 10
234.508012
 20
33.487374
 30
0.0
  0
SPLINE
  5
235
100
AcDbEntity
  8
Layer_1
 62
7
100
AcDbSpline
 70
8
 71
3
 72
8
 73
4
 74
0
 40
0
 40
0
 40
0
 40
0
 40
1
 40
1
 40
1
 40
1
 10
234.507927
 20
24.489365
 30
0.0
 10
234.512725
 20
24.545897
 30
0.0
 10
234.507927
 20
24.602432
 30
0.0
 10
234.507927
 20
24.630696
 30
0.0
  0
SPLINE
  5
236
100
AcDbEntity
  8
Layer_1
 62
7
100
AcDbSpline
 70
8
 71
3
 72
8
 73
4
 74
0
 40
0
 40
0
 40
0
 40
0
 40
1
 40
1
 40
1
 40
1
 10
234.507927
 20
24.630696
 30
0.0
 10
234.507927
 20
25.393887
 30
0.0
 10
233.894969
 20
26.015747
 30
0.0
 10
233.138049
 20
26.015747
 30
0.0
  0
SPLINE
  5
237
100
AcDbEntity
  8
Layer_1
 62
7
100
AcDbSpline
 70
8
 71
3
 72
8
 73
4
 74
0
 40
0
 40
0
 40
0
 40
0
 40
1
 40
1
 40
1
 40
1
 10
233.138049
 20
26.015747
 30
0.0
 10
232.381129
 20
26.015747
 30
0.0
 10
231.768170
 20
25.393887
 30
0.0
 10
231.768170
 20
24.630696
 30
0.0
  0
SPLINE
  5
238
100
AcDbEntity
  8
Layer_1
 62
7
100
AcDbSpline
 70
8
 71
3
 72
8
 73
4
 74
0
 40
0
 40
0
 40
0
 40
0
 40
1
 40
1
 40
1
 40
1
 10
231.768170
 20
24.630696
 30
0.0
 10
231.768170
 20
23.895772
 30
0.0
 10
232.381129
 20
23.273913
 30
0.0
 10
233.138049
 20
23.273913
 30
0.0
  0
SPLINE
  5
239
100
AcDbEntity
  8
Layer_1
 62
7
100
AcDbSpline
 70
8
 71
3
 72
8
 73
4
 74
0
 40
0
 40
0
 40
0
 40
0
 40
1
 40
1
 40
1
 40
1
 10
233.138049
 20
23.273913
 30
0.0
 10
233.847612
 20
23.273913
 30
0.0
 10
234.437710
 20
23.810973
 30
0.0
 10
234.507927
 20
24.489365
 30
0.0
  0
LWPOLYLINE
  5
23a
100
AcDbEntity
  8
Layer_1
 62
1
100
AcDbPolyline
 90
5
 70
0
 10
225.141169
 20
28.141106
 30
0.0
 10
241.141165
 20
28.141106
 30
0.0
 10
241.141165
 20
21.141106
 30
0.0
 10
225.141169
 20
21.141106
 30
0.0
 10
225.141169
 20
28.141106
 30
0.0
  0
LWPOLYLINE
  5
23b
100
AcDbEntity
  8
Layer_1
 62
7
100
AcDbPolyline
 90
2
 70
0
 10
234.507927
 20
24.489365
 30
0.0
 10
234.507927
 20
24.489365
 30
0.0
  0
SPLINE
  5
23c
100
AcDbEntity
  8
Layer_1
 62
7
100
AcDbSpline
 70
8
 71
3
 72
8
 73
4
 74
0
 40
0
 40
0
 40
0
 40
0
 40
1
 40
1
 40
1
 40
1
 10
234.507899
 20
14.989364
 30
0.0
 10
234.512697
 20
15.045893
 30
0.0
 10
234.507899
 20
15.102431
 30
0.0
 10
234.507899
 20
15.130695
 30
0.0
  0
SPLINE
  5
23d
100
AcDbEntity
  8
Layer_1
 62
7
100
AcDbSpline
 70
8
 71
3
 72
8
 73
4
 74
0
 40
0
 40
0
 40
0
 40
0
 40
1
 40
1
 40
1
 40
1
 10
234.507899
 20
15.130695
 30
0.0
 10
234.507899
 20
15.893883
 30
0.0
 10
233.894940
 20
16.515743
 30
0.0
 10
233.138020
 20
16.515743
 30
0.0
  0
SPLINE
  5
23e
100
AcDbEntity
  8
Layer_1
 62
7
100
AcDbSpline
 70
8
 71
3
 72
8
 73
4
 74
0
 40
0
 40
0
 40
0
 40
0
 40
1
 40
1
 40
1
 40
1
 10
233.138020
 20
16.515743
 30
0.0
 10
232.381100
 20
16.515743
 30
0.0
 10
231.768142
 20
15.893883
 30
0.0
 10
231.768142
 20
15.130695
 30
0.0
  0
SPLINE
  5
23f
100
AcDbEntity
  8
Layer_1
 62
7
100
AcDbSpline
 70
8
 71
3
 72
8
 73
4
 74
0
 40
0
 40
0
 40
0
 40
0
 40
1
 40
1
 40
1
 40
1
 10
231.768142
 20
15.130695
 30
0.0
 10
231.768142
 20
14.395772
 30
0.0
 10
232.381100
 20
13.773912
 30
0.0
 10
233.138020
 20
13.773912
 30
0.0
  0
SPLINE
  5
240
100
AcDbEntity
  8
Layer_1
 62
7
100
AcDbSpline
 70
8
 71
3
 72
8
 73
4
 74
0
 40
0
 40
0
 40
0
 40
0
 40
1
 40
1
 40
1
 40
1
 10
233.138020
 20
13.773912
 30
0.0
 10
233.847584
 20
13.773912
 30
0.0
 10
234.437682
 20
14.310970
 30
0.0
 10
234.507899
 20
14.989364
 30
0.0
  0
LWPOLYLINE
  5
241
100
AcDbEntity
  8
Layer_1
 62
1
100
AcDbPolyline
 90
5
 70
0
 10
225.141113
 20
20.141111
 30
0.0
 10
241.141109
 20
20.141111
 30
0.0
 10
241.141109
 20
10.141111
 30
0.0
 10
225.141113
 20
10.141111
 30
0.0
 10
225.141113
 20
20.141111
 30
0.0
  0
LWPOLYLINE
  5
242
100
AcDbEntity
  8
Layer_1
 62
7
100
AcDbPolyline
 90
2
 70
0
 10
234.507899
 20
14.989364
 30
0.0
 10
234.507899
 20
14.989364
 30
0.0
  0
LWPOLYLINE
  5
243
100
AcDbEntity
  8
Layer_1
 62
7
100
AcDbPolyline
 90
5
 70
0
 10
20.143950
 20
155.144845
 30
0.0
 10
46.143926
 20
155.144845
 30
0.0
 10
46.143926
 20
75.144842
 30
0.0
 10
20.143950
 20
75.144842
 30
0.0
 10
20.143950
 20
155.144845
 30
0.0
  0
SPLINE
  5
244
100
AcDbEntity
  8
Layer_1
 62
7
100
AcDbSpline
 70
8
 71
3
 72
8
 73
4
 74
0
 40
0
 40
0
 40
0
 40
0
 40
1
 40
1
 40
1
 40
1
 10
34.643963
 20
163.641114
 30
0.0
 10
34.643963
 20
162.812685
 30
0.0
 10
33.972387
 20
162.141112
 30
0.0
 10
33.143952
 20
162.141112
 30
0.0
  0
SPLINE
  5
245
100
AcDbEntity
  8
Layer_1
 62
7
100
AcDbSpline
 70
8
 71
3
 72
8
 73
4
 74
0
 40
0
 40
0
 40
0
 40
0
 40
1
 40
1
 40
1
 40
1
 10
33.143952
 20
162.141112
 30
0.0
 10
32.315517
 20
162.141112
 30
0.0
 10
31.643941
 20
162.812685
 30
0.0
 10
31.643941
 20
163.641114
 30
0.0
  0
SPLINE
  5
246
100
AcDbEntity
  8
Layer_1
 62
7
100
AcDbSpline
 70
8
 71
3
 72
8
 73
4
 74
0
 40
0
 40
0
 40
0
 40
0
 40
1
 40
1
 40
1
 40
1
 10
31.643941
 20
163.641114
 30
0.0
 10
31.643941
 20
164.469541
 30
0.0
 10
32.315517
 20
165.141114
 30
0.0
 10
33.143952
 20
165.141114
 30
0.0
  0
SPLINE
  5
247
100
AcDbEntity
  8
Layer_1
 62
7
100
AcDbSpline
 70
8
 71
3
 72
8
 73
4
 74
0
 40
0
 40
0
 40
0
 40
0
 40
1
 40
1
 40
1
 40
1
 10
33.143952
 20
165.141114
 30
0.0
 10
33.972387
 20
165.141114
 30
0.0
 10
34.643963
 20
164.469541
 30
0.0
 10
34.643963
 20
163.641114
 30
0.0
  0
LWPOLYLINE
  5
248
100
AcDbEntity
  8
Layer_1
 62
1
100
AcDbPolyline
 90
7
 70
0
 10
17.143956
 20
159.141115
 30
0.0
 10
31.488775
 20
167.141116
 30
0.0
 10
35.143948
 20
167.141116
 30
0.0
 10
49.143920
 20
159.141115
 30
0.0
 10
49.141098
 20
69.144854
 30
0.0
 10
17.141105
 20
69.144854
 30
0.0
 10
17.143956
 20
159.141115
 30
0.0
  0
LWPOLYLINE
  5
249
100
AcDbEntity
  8
Layer_1
 62
7
100
AcDbPolyline
 90
2
 70
0
 10
34.643963
 20
163.641114
 30
0.0
 10
34.643963
 20
163.641114
 30
0.0
  0
SPLINE
  5
24a
100
AcDbEntity
  8
Layer_1
 62
7
100
AcDbSpline
 70
8
 71
3
 72
8
 73
4
 74
0
 40
0
 40
0
 40
0
 40
0
 40
1
 40
1
 40
1
 40
1
 10
35.393940
 20
157.141122
 30
0.0
 10
35.449341
 20
157.141122
 30
0.0
 10
35.493932
 20
157.096522
 30
0.0
 10
35.493932
 20
157.041122
 30
0.0
  0
LWPOLYLINE
  5
24b
100
AcDbEntity
  8
Layer_1
 62
7
100
AcDbPolyline
 90
2
 70
0
 10
30.893935
 20
157.141122
 30
0.0
 10
35.393940
 20
157.141122
 30
0.0
  0
SPLINE
  5
24c
100
AcDbEntity
  8
Layer_1
 62
7
100
AcDbSpline
 70
8
 71
3
 72
8
 73
4
 74
0
 40
0
 40
0
 40
0
 40
0
 40
1
 40
1
 40
1
 40
1
 10
35.493932
 20
149.241123
 30
0.0
 10
35.493932
 20
149.185723
 30
0.0
 10
35.449341
 20
149.141124
 30
0.0
 10
35.393940
 20
149.141124
 30
0.0
  0
LWPOLYLINE
  5
24d
100
AcDbEntity
  8
Layer_1
 62
7
100
AcDbPolyline
 90
2
 70
0
 10
35.493932
 20
157.041122
 30
0.0
 10
35.493932
 20
149.241123
 30
0.0
  0
SPLINE
  5
24e
100
AcDbEntity
  8
Layer_1
 62
7
100
AcDbSpline
 70
8
 71
3
 72
8
 73
4
 74
0
 40
0
 40
0
 40
0
 40
0
 40
1
 40
1
 40
1
 40
1
 10
30.893935
 20
149.141124
 30
0.0
 10
30.838535
 20
149.141124
 30
0.0
 10
30.793944
 20
149.185723
 30
0.0
 10
30.793944
 20
149.241123
 30
0.0
  0
LWPOLYLINE
  5
24f
100
AcDbEntity
  8
Layer_1
 62
7
100
AcDbPolyline
 90
2
 70
0
 10
35.393940
 20
149.141124
 30
0.0
 10
30.893935
 20
149.141124
 30
0.0
  0
SPLINE
  5
250
100
AcDbEntity
  8
Layer_1
 62
7
100
AcDbSpline
 70
8
 71
3
 72
8
 73
4
 74
0
 40
0
 40
0
 40
0
 40
0
 40
1
 40
1
 40
1
 40
1
 10
30.793944
 20
157.041122
 30
0.0
 10
30.793944
 20
157.096522
 30
0.0
 10
30.838535
 20
157.141122
 30
0.0
 10
30.893935
 20
157.141122
 30
0.0
  0
LWPOLYLINE
  5
251
100
AcDbEntity
  8
Layer_1
 62
7
100
AcDbPolyline
 90
2
 70
0
 10
30.793944
 20
149.241123
 30
0.0
 10
30.793944
 20
157.041122
 30
0.0
  0
LWPOLYLINE
  5
252
100
AcDbEntity
  8
Layer_1
 62
7
100
AcDbPolyline
 90
2
 70
0
 10
30.893935
 20
157.141122
 30
0.0
 10
30.893935
 20
157.141122
 30
0.0
  0
SPLINE
  5
253
100
AcDbEntity
  8
Layer_1
 62
7
100
AcDbSpline
 70
8
 71
3
 72
8
 73
4
 74
0
 40
0
 40
0
 40
0
 40
0
 40
1
 40
1
 40
1
 40
1
 10
35.393940
 20
81.141133
 30
0.0
 10
35.449341
 20
81.141133
 30
0.0
 10
35.493932
 20
81.096513
 30
0.0
 10
35.493932
 20
81.041141
 30
0.0
  0
LWPOLYLINE
  5
254
100
AcDbEntity
  8
Layer_1
 62
7
100
AcDbPolyline
 90
2
 70
0
 10
30.893935
 20
81.141133
 30
0.0
 10
35.393940
 20
81.141133
 30
0.0
  0
SPLINE
  5
255
100
AcDbEntity
  8
Layer_1
 62
7
100
AcDbSpline
 70
8
 71
3
 72
8
 73
4
 74
0
 40
0
 40
0
 40
0
 40
0
 40
1
 40
1
 40
1
 40
1
 10
35.493932
 20
73.241140
 30
0.0
 10
35.493932
 20
73.185740
 30
0.0
 10
35.449341
 20
73.141120
 30
0.0
 10
35.393940
 20
73.141120
 30
0.0
  0
LWPOLYLINE
  5
256
100
AcDbEntity
  8
Layer_1
 62
7
100
AcDbPolyline
 90
2
 70
0
 10
35.493932
 20
81.041141
 30
0.0
 10
35.493932
 20
73.241140
 30
0.0
  0
SPLINE
  5
257
100
AcDbEntity
  8
Layer_1
 62
7
100
AcDbSpline
 70
8
 71
3
 72
8
 73
4
 74
0
 40
0
 40
0
 40
0
 40
0
 40
1
 40
1
 40
1
 40
1
 10
30.893935
 20
73.141120
 30
0.0
 10
30.838535
 20
73.141120
 30
0.0
 10
30.793944
 20
73.185740
 30
0.0
 10
30.793944
 20
73.241140
 30
0.0
  0
LWPOLYLINE
  5
258
100
AcDbEntity
  8
Layer_1
 62
7
100
AcDbPolyline
 90
2
 70
0
 10
35.393940
 20
73.141120
 30
0.0
 10
30.893935
 20
73.141120
 30
0.0
  0
SPLINE
  5
259
100
AcDbEntity
  8
Layer_1
 62
7
100
AcDbSpline
 70
8
 71
3
 72
8
 73
4
 74
0
 40
0
 40
0
 40
0
 40
0
 40
1
 40
1
 40
1
 40
1
 10
30.793944
 20
81.041141
 30
0.0
 10
30.793944
 20
81.096513
 30
0.0
 10
30.838535
 20
81.141133
 30
0.0
 10
30.893935
 20
81.141133
 30
0.0
  0
LWPOLYLINE
  5
25a
100
AcDbEntity
  8
Layer_1
 62
7
100
AcDbPolyline
 90
2
 70
0
 10
30.793944
 20
73.241140
 30
0.0
 10
30.793944
 20
81.041141
 30
0.0
  0
LWPOLYLINE
  5
25b
100
AcDbEntity
  8
Layer_1
 62
7
100
AcDbPolyline
 90
2
 70
0
 10
30.893935
 20
81.141133
 30
0.0
 10
30.893935
 20
81.141133
 30
0.0
  0
SPLINE
  5
25c
100
AcDbEntity
  8
Layer_1
 62
7
100
AcDbSpline
 70
8
 71
3
 72
8
 73
4
 74
0
 40
0
 40
0
 40
0
 40
0
 40
1
 40
1
 40
1
 40
1
 10
35.393940
 20
71.141124
 30
0.0
 10
35.449341
 20
71.141124
 30
0.0
 10
35.493932
 20
71.096505
 30
0.0
 10
35.493932
 20
71.041105
 30
0.0
  0
LWPOLYLINE
  5
25d
100
AcDbEntity
  8
Layer_1
 62
7
100
AcDbPolyline
 90
2
 70
0
 10
30.893935
 20
71.141124
 30
0.0
 10
35.393940
 20
71.141124
 30
0.0
  0
SPLINE
  5
25e
100
AcDbEntity
  8
Layer_1
 62
7
100
AcDbSpline
 70
8
 71
3
 72
8
 73
4
 74
0
 40
0
 40
0
 40
0
 40
0
 40
1
 40
1
 40
1
 40
1
 10
35.493932
 20
63.241103
 30
0.0
 10
35.493932
 20
63.185731
 30
0.0
 10
35.449341
 20
63.141112
 30
0.0
 10
35.393940
 20
63.141112
 30
0.0
  0
LWPOLYLINE
  5
25f
100
AcDbEntity
  8
Layer_1
 62
7
100
AcDbPolyline
 90
2
 70
0
 10
35.493932
 20
71.041105
 30
0.0
 10
35.493932
 20
63.241103
 30
0.0
  0
SPLINE
  5
260
100
AcDbEntity
  8
Layer_1
 62
7
100
AcDbSpline
 70
8
 71
3
 72
8
 73
4
 74
0
 40
0
 40
0
 40
0
 40
0
 40
1
 40
1
 40
1
 40
1
 10
30.893935
 20
63.141112
 30
0.0
 10
30.838535
 20
63.141112
 30
0.0
 10
30.793944
 20
63.185731
 30
0.0
 10
30.793944
 20
63.241103
 30
0.0
  0
LWPOLYLINE
  5
261
100
AcDbEntity
  8
Layer_1
 62
7
100
AcDbPolyline
 90
2
 70
0
 10
35.393940
 20
63.141112
 30
0.0
 10
30.893935
 20
63.141112
 30
0.0
  0
SPLINE
  5
262
100
AcDbEntity
  8
Layer_1
 62
7
100
AcDbSpline
 70
8
 71
3
 72
8
 73
4
 74
0
 40
0
 40
0
 40
0
 40
0
 40
1
 40
1
 40
1
 40
1
 10
30.793944
 20
71.041105
 30
0.0
 10
30.793944
 20
71.096505
 30
0.0
 10
30.838535
 20
71.141124
 30
0.0
 10
30.893935
 20
71.141124
 30
0.0
  0
LWPOLYLINE
  5
263
100
AcDbEntity
  8
Layer_1
 62
7
100
AcDbPolyline
 90
2
 70
0
 10
30.793944
 20
63.241103
 30
0.0
 10
30.793944
 20
71.041105
 30
0.0
  0
LWPOLYLINE
  5
264
100
AcDbEntity
  8
Layer_1
 62
7
100
AcDbPolyline
 90
2
 70
0
 10
30.893935
 20
71.141124
 30
0.0
 10
30.893935
 20
71.141124
 30
0.0
  0
LWPOLYLINE
  5
265
100
AcDbEntity
  8
Layer_1
 62
7
100
AcDbPolyline
 90
5
 70
0
 10
55.139110
 20
155.141117
 30
0.0
 10
81.139086
 20
155.141117
 30
0.0
 10
81.139086
 20
75.141114
 30
0.0
 10
55.139110
 20
75.141114
 30
0.0
 10
55.139110
 20
155.141117
 30
0.0
  0
LWPOLYLINE
  5
266
100
AcDbEntity
  8
Layer_1
 62
1
100
AcDbPolyline
 90
5
 70
0
 10
52.141120
 20
159.141120
 30
0.0
 10
84.141112
 20
159.141120
 30
0.0
 10
84.141112
 20
69.141126
 30
0.0
 10
52.141120
 20
69.141126
 30
0.0
 10
52.141120
 20
159.141120
 30
0.0
  0
SPLINE
  5
267
100
AcDbEntity
  8
Layer_1
 62
7
100
AcDbSpline
 70
8
 71
3
 72
8
 73
4
 74
0
 40
0
 40
0
 40
0
 40
0
 40
1
 40
1
 40
1
 40
1
 10
70.389101
 20
165.141108
 30
0.0
 10
70.444501
 20
165.141108
 30
0.0
 10
70.489092
 20
165.096509
 30
0.0
 10
70.489092
 20
165.041109
 30
0.0
  0
LWPOLYLINE
  5
268
100
AcDbEntity
  8
Layer_1
 62
7
100
AcDbPolyline
 90
2
 70
0
 10
65.889096
 20
165.141108
 30
0.0
 10
70.389101
 20
165.141108
 30
0.0
  0
SPLINE
  5
269
100
AcDbEntity
  8
Layer_1
 62
7
100
AcDbSpline
 70
8
 71
3
 72
8
 73
4
 74
0
 40
0
 40
0
 40
0
 40
0
 40
1
 40
1
 40
1
 40
1
 10
70.489092
 20
157.241110
 30
0.0
 10
70.489092
 20
157.185710
 30
0.0
 10
70.444501
 20
157.141108
 30
0.0
 10
70.389101
 20
157.141108
 30
0.0
  0
LWPOLYLINE
  5
26a
100
AcDbEntity
  8
Layer_1
 62
7
100
AcDbPolyline
 90
2
 70
0
 10
70.489092
 20
165.041109
 30
0.0
 10
70.489092
 20
157.241110
 30
0.0
  0
SPLINE
  5
26b
100
AcDbEntity
  8
Layer_1
 62
7
100
AcDbSpline
 70
8
 71
3
 72
8
 73
4
 74
0
 40
0
 40
0
 40
0
 40
0
 40
1
 40
1
 40
1
 40
1
 10
65.889096
 20
157.141108
 30
0.0
 10
65.833696
 20
157.141108
 30
0.0
 10
65.789104
 20
157.185710
 30
0.0
 10
65.789104
 20
157.241110
 30
0.0
  0
LWPOLYLINE
  5
26c
100
AcDbEntity
  8
Layer_1
 62
7
100
AcDbPolyline
 90
2
 70
0
 10
70.389101
 20
157.141108
 30
0.0
 10
65.889096
 20
157.141108
 30
0.0
  0
SPLINE
  5
26d
100
AcDbEntity
  8
Layer_1
 62
7
100
AcDbSpline
 70
8
 71
3
 72
8
 73
4
 74
0
 40
0
 40
0
 40
0
 40
0
 40
1
 40
1
 40
1
 40
1
 10
65.789104
 20
165.041109
 30
0.0
 10
65.789104
 20
165.096509
 30
0.0
 10
65.833696
 20
165.141108
 30
0.0
 10
65.889096
 20
165.141108
 30
0.0
  0
LWPOLYLINE
  5
26e
100
AcDbEntity
  8
Layer_1
 62
7
100
AcDbPolyline
 90
2
 70
0
 10
65.789104
 20
157.241110
 30
0.0
 10
65.789104
 20
165.041109
 30
0.0
  0
LWPOLYLINE
  5
26f
100
AcDbEntity
  8
Layer_1
 62
7
100
AcDbPolyline
 90
2
 70
0
 10
65.889096
 20
165.141108
 30
0.0
 10
65.889096
 20
165.141108
 30
0.0
  0
LWPOLYLINE
  5
270
100
AcDbEntity
  8
Layer_1
 62
7
100
AcDbPolyline
 90
4
 70
0
 10
70.489092
 20
66.141112
 30
0.0
 10
70.489092
 20
71.141113
 30
0.0
 10
65.789104
 20
71.141113
 30
0.0
 10
65.789104
 20
77.141112
 30
0.0
  0
LWPOLYLINE
  5
271
100
AcDbEntity
  8
Layer_1
 62
7
100
AcDbPolyline
 90
3
 70
0
 10
65.789104
 20
73.141112
 30
0.0
 10
70.489092
 20
73.141112
 30
0.0
 10
70.489092
 20
71.141113
 30
0.0
  0
SPLINE
  5
272
100
AcDbEntity
  8
Layer_1
 62
1
100
AcDbSpline
 70
8
 71
3
 72
8
 73
4
 74
0
 40
0
 40
0
 40
0
 40
0
 40
1
 40
1
 40
1
 40
1
 10
126.141395
 20
213.137578
 30
0.0
 10
126.141395
 20
215.494105
 30
0.0
 10
124.507921
 20
217.459529
 30
0.0
 10
122.313785
 20
217.988272
 30
0.0
  0
LWPOLYLINE
  5
273
100
AcDbEntity
  8
Layer_1
 62
1
100
AcDbPolyline
 90
2
 70
0
 10
126.141395
 20
51.141938
 30
0.0
 10
126.141395
 20
213.137578
 30
0.0
  0
SPLINE
  5
274
100
AcDbEntity
  8
Layer_1
 62
1
100
AcDbSpline
 70
8
 71
3
 72
8
 73
4
 74
0
 40
0
 40
0
 40
0
 40
0
 40
1
 40
1
 40
1
 40
1
 10
121.475923
 20
218.120550
 30
0.0
 10
121.364700
 20
218.127888
 30
0.0
 10
121.253871
 20
218.138048
 30
0.0
 10
121.140784
 20
218.138048
 30
0.0
  0
LWPOLYLINE
  5
275
100
AcDbEntity
  8
Layer_1
 62
1
100
AcDbPolyline
 90
2
 70
0
 10
122.313785
 20
217.988272
 30
0.0
 10
121.475923
 20
218.120550
 30
0.0
  0
SPLINE
  5
276
100
AcDbEntity
  8
Layer_1
 62
1
100
AcDbSpline
 70
8
 71
3
 72
8
 73
4
 74
0
 40
0
 40
0
 40
0
 40
0
 40
1
 40
1
 40
1
 40
1
 10
151.647342
 20
218.138048
 30
0.0
 10
148.885966
 20
218.138048
 30
0.0
 10
146.144008
 20
215.898868
 30
0.0
 10
146.144008
 20
213.137437
 30
0.0
  0
LWPOLYLINE
  5
277
100
AcDbEntity
  8
Layer_1
 62
1
100
AcDbPolyline
 90
8
 70
0
 10
121.140784
 20
218.138048
 30
0.0
 10
122.362045
 20
218.138048
 30
0.0
 10
25.141118
 20
233.139937
 30
0.0
 10
25.141118
 20
244.141114
 30
0.0
 10
245.141101
 20
244.141114
 30
0.0
 10
245.141101
 20
231.141114
 30
0.0
 10
151.623917
 20
218.138048
 30
0.0
 10
151.647342
 20
218.138048
 30
0.0
  0
SPLINE
  5
278
100
AcDbEntity
  8
Layer_1
 62
7
100
AcDbSpline
 70
8
 71
3
 72
8
 73
4
 74
0
 40
0
 40
0
 40
0
 40
0
 40
1
 40
1
 40
1
 40
1
 10
140.639574
 20
54.135299
 30
0.0
 10
141.416617
 20
54.135299
 30
0.0
 10
142.053225
 20
54.730139
 30
0.0
 10
142.130074
 20
55.484689
 30
0.0
  0
SPLINE
  5
279
100
AcDbEntity
  8
Layer_1
 62
7
100
AcDbSpline
 70
8
 71
3
 72
8
 73
4
 74
0
 40
0
 40
0
 40
0
 40
0
 40
1
 40
1
 40
1
 40
1
 10
142.130074
 20
55.484689
 30
0.0
 10
142.135154
 20
55.534981
 30
0.0
 10
142.138823
 20
55.582958
 30
0.0
 10
142.138823
 20
55.634605
 30
0.0
  0
SPLINE
  5
27a
100
AcDbEntity
  8
Layer_1
 62
7
100
AcDbSpline
 70
8
 71
3
 72
8
 73
4
 74
0
 40
0
 40
0
 40
0
 40
0
 40
1
 40
1
 40
1
 40
1
 10
142.138823
 20
55.634605
 30
0.0
 10
142.138823
 20
55.686252
 30
0.0
 10
142.135154
 20
55.743063
 30
0.0
 10
142.130074
 20
55.793355
 30
0.0
  0
SPLINE
  5
27b
100
AcDbEntity
  8
Layer_1
 62
7
100
AcDbSpline
 70
8
 71
3
 72
8
 73
4
 74
0
 40
0
 40
0
 40
0
 40
0
 40
1
 40
1
 40
1
 40
1
 10
142.130074
 20
55.793355
 30
0.0
 10
142.124994
 20
55.843647
 30
0.0
 10
142.113706
 20
55.894588
 30
0.0
 10
142.103546
 20
55.943300
 30
0.0
  0
SPLINE
  5
27c
100
AcDbEntity
  8
Layer_1
 62
7
100
AcDbSpline
 70
8
 71
3
 72
8
 73
4
 74
0
 40
0
 40
0
 40
0
 40
0
 40
1
 40
1
 40
1
 40
1
 10
142.103546
 20
55.943300
 30
0.0
 10
142.073545
 20
56.089406
 30
0.0
 10
142.022915
 20
56.230574
 30
0.0
 10
141.953601
 20
56.357799
 30
0.0
  0
SPLINE
  5
27d
100
AcDbEntity
  8
Layer_1
 62
7
100
AcDbSpline
 70
8
 71
3
 72
8
 73
4
 74
0
 40
0
 40
0
 40
0
 40
0
 40
1
 40
1
 40
1
 40
1
 10
141.953601
 20
56.357799
 30
0.0
 10
141.930459
 20
56.400217
 30
0.0
 10
141.909998
 20
56.441478
 30
0.0
 10
141.883045
 20
56.481272
 30
0.0
  0
SPLINE
  5
27e
100
AcDbEntity
  8
Layer_1
 62
7
100
AcDbSpline
 70
8
 71
3
 72
8
 73
4
 74
0
 40
0
 40
0
 40
0
 40
0
 40
1
 40
1
 40
1
 40
1
 10
141.883045
 20
56.481272
 30
0.0
 10
141.829113
 20
56.560887
 30
0.0
 10
141.765726
 20
56.634067
 30
0.0
 10
141.697823
 20
56.701772
 30
0.0
  0
SPLINE
  5
27f
100
AcDbEntity
  8
Layer_1
 62
7
100
AcDbSpline
 70
8
 71
3
 72
8
 73
4
 74
0
 40
0
 40
0
 40
0
 40
0
 40
1
 40
1
 40
1
 40
1
 10
141.697823
 20
56.701772
 30
0.0
 10
141.596025
 20
56.803287
 30
0.0
 10
141.481471
 20
56.879600
 30
0.0
 10
141.353879
 20
56.948716
 30
0.0
  0
SPLINE
  5
280
100
AcDbEntity
  8
Layer_1
 62
7
100
AcDbSpline
 70
8
 71
3
 72
8
 73
4
 74
0
 40
0
 40
0
 40
0
 40
0
 40
1
 40
1
 40
1
 40
1
 10
141.353879
 20
56.948716
 30
0.0
 10
141.183755
 20
57.040834
 30
0.0
 10
140.991223
 20
57.104644
 30
0.0
 10
140.789434
 20
57.125105
 30
0.0
  0
SPLINE
  5
281
100
AcDbEntity
  8
Layer_1
 62
7
100
AcDbSpline
 70
8
 71
3
 72
8
 73
4
 74
0
 40
0
 40
0
 40
0
 40
0
 40
1
 40
1
 40
1
 40
1
 10
140.789434
 20
57.125105
 30
0.0
 10
140.738973
 20
57.130185
 30
0.0
 10
140.691306
 20
57.133854
 30
0.0
 10
140.639490
 20
57.133854
 30
0.0
  0
SPLINE
  5
282
100
AcDbEntity
  8
Layer_1
 62
7
100
AcDbSpline
 70
8
 71
3
 72
8
 73
4
 74
0
 40
0
 40
0
 40
0
 40
0
 40
1
 40
1
 40
1
 40
1
 10
140.639490
 20
57.133854
 30
0.0
 10
140.484070
 20
57.133854
 30
0.0
 10
140.330682
 20
57.107043
 30
0.0
 10
140.189712
 20
57.063299
 30
0.0
  0
SPLINE
  5
283
100
AcDbEntity
  8
Layer_1
 62
7
100
AcDbSpline
 70
8
 71
3
 72
8
 73
4
 74
0
 40
0
 40
0
 40
0
 40
0
 40
1
 40
1
 40
1
 40
1
 10
140.189712
 20
57.063299
 30
0.0
 10
140.142722
 20
57.048623
 30
0.0
 10
140.102308
 20
57.029291
 30
0.0
 10
140.057434
 20
57.010382
 30
0.0
  0
SPLINE
  5
284
100
AcDbEntity
  8
Layer_1
 62
7
100
AcDbSpline
 70
8
 71
3
 72
8
 73
4
 74
0
 40
0
 40
0
 40
0
 40
0
 40
1
 40
1
 40
1
 40
1
 10
140.057434
 20
57.010382
 30
0.0
 10
140.012533
 20
56.991473
 30
0.0
 10
139.967660
 20
56.971661
 30
0.0
 10
139.925129
 20
56.948632
 30
0.0
  0
SPLINE
  5
285
100
AcDbEntity
  8
Layer_1
 62
7
100
AcDbSpline
 70
8
 71
3
 72
8
 73
4
 74
0
 40
0
 40
0
 40
0
 40
0
 40
1
 40
1
 40
1
 40
1
 10
139.925129
 20
56.948632
 30
0.0
 10
139.882598
 20
56.925489
 30
0.0
 10
139.841591
 20
56.896138
 30
0.0
 10
139.801656
 20
56.869271
 30
0.0
  0
SPLINE
  5
286
100
AcDbEntity
  8
Layer_1
 62
7
100
AcDbSpline
 70
8
 71
3
 72
8
 73
4
 74
0
 40
0
 40
0
 40
0
 40
0
 40
1
 40
1
 40
1
 40
1
 10
139.801656
 20
56.869271
 30
0.0
 10
139.641975
 20
56.761688
 30
0.0
 10
139.503856
 20
56.640417
 30
0.0
 10
139.395962
 20
56.481215
 30
0.0
  0
SPLINE
  5
287
100
AcDbEntity
  8
Layer_1
 62
7
100
AcDbSpline
 70
8
 71
3
 72
8
 73
4
 74
0
 40
0
 40
0
 40
0
 40
0
 40
1
 40
1
 40
1
 40
1
 10
139.395962
 20
56.481215
 30
0.0
 10
139.315077
 20
56.361807
 30
0.0
 10
139.245792
 20
56.224901
 30
0.0
 10
139.201934
 20
56.084326
 30
0.0
  0
SPLINE
  5
288
100
AcDbEntity
  8
Layer_1
 62
7
100
AcDbSpline
 70
8
 71
3
 72
8
 73
4
 74
0
 40
0
 40
0
 40
0
 40
0
 40
1
 40
1
 40
1
 40
1
 10
139.201934
 20
56.084326
 30
0.0
 10
139.187259
 20
56.037477
 30
0.0
 10
139.176534
 20
55.991927
 30
0.0
 10
139.166656
 20
55.943215
 30
0.0
  0
SPLINE
  5
289
100
AcDbEntity
  8
Layer_1
 62
7
100
AcDbSpline
 70
8
 71
3
 72
8
 73
4
 74
0
 40
0
 40
0
 40
0
 40
0
 40
1
 40
1
 40
1
 40
1
 10
139.166656
 20
55.943215
 30
0.0
 10
139.156779
 20
55.894503
 30
0.0
 10
139.154239
 20
55.843591
 30
0.0
 10
139.149159
 20
55.793299
 30
0.0
  0
SPLINE
  5
28a
100
AcDbEntity
  8
Layer_1
 62
7
100
AcDbSpline
 70
8
 71
3
 72
8
 73
4
 74
0
 40
0
 40
0
 40
0
 40
0
 40
1
 40
1
 40
1
 40
1
 10
139.149159
 20
55.793299
 30
0.0
 10
139.144079
 20
55.742978
 30
0.0
 10
139.140410
 20
55.686195
 30
0.0
 10
139.140410
 20
55.634549
 30
0.0
  0
SPLINE
  5
28b
100
AcDbEntity
  8
Layer_1
 62
7
100
AcDbSpline
 70
8
 71
3
 72
8
 73
4
 74
0
 40
0
 40
0
 40
0
 40
0
 40
1
 40
1
 40
1
 40
1
 10
139.140410
 20
55.634549
 30
0.0
 10
139.140410
 20
54.808145
 30
0.0
 10
139.810885
 20
54.135243
 30
0.0
 10
140.639687
 20
54.135243
 30
0.0
  0
LWPOLYLINE
  5
28c
100
AcDbEntity
  8
Layer_1
 62
1
100
AcDbPolyline
 90
4
 70
0
 10
146.144008
 20
213.137437
 30
0.0
 10
146.144008
 20
51.141881
 30
0.0
 10
126.141508
 20
51.141881
 30
0.0
 10
126.141395
 20
51.141938
 30
0.0
  0
SPLINE
  5
28d
100
AcDbEntity
  8
Layer_1
 62
7
100
AcDbSpline
 70
8
 71
3
 72
8
 73
4
 74
0
 40
0
 40
0
 40
0
 40
0
 40
1
 40
1
 40
1
 40
1
 10
140.639574
 20
62.134550
 30
0.0
 10
141.468404
 20
62.134550
 30
0.0
 10
142.138880
 20
62.816286
 30
0.0
 10
142.138908
 20
63.642661
 30
0.0
  0
SPLINE
  5
28e
100
AcDbEntity
  8
Layer_1
 62
7
100
AcDbSpline
 70
8
 71
3
 72
8
 73
4
 74
0
 40
0
 40
0
 40
0
 40
0
 40
1
 40
1
 40
1
 40
1
 10
142.138908
 20
63.642661
 30
0.0
 10
142.138908
 20
64.469035
 30
0.0
 10
141.468433
 20
65.133161
 30
0.0
 10
140.639574
 20
65.133161
 30
0.0
  0
SPLINE
  5
28f
100
AcDbEntity
  8
Layer_1
 62
7
100
AcDbSpline
 70
8
 71
3
 72
8
 73
4
 74
0
 40
0
 40
0
 40
0
 40
0
 40
1
 40
1
 40
1
 40
1
 10
140.639574
 20
65.133161
 30
0.0
 10
139.810800
 20
65.133161
 30
0.0
 10
139.140269
 20
64.469035
 30
0.0
 10
139.140297
 20
63.642661
 30
0.0
  0
SPLINE
  5
290
100
AcDbEntity
  8
Layer_1
 62
7
100
AcDbSpline
 70
8
 71
3
 72
8
 73
4
 74
0
 40
0
 40
0
 40
0
 40
0
 40
1
 40
1
 40
1
 40
1
 10
139.140297
 20
63.642661
 30
0.0
 10
139.140297
 20
62.816286
 30
0.0
 10
139.810772
 20
62.134550
 30
0.0
 10
140.639574
 20
62.134550
 30
0.0
  0
LWPOLYLINE
  5
291
100
AcDbEntity
  8
Layer_1
 62
7
100
AcDbPolyline
 90
2
 70
0
 10
140.639687
 20
54.135243
 30
0.0
 10
140.639574
 20
54.135299
 30
0.0
  0
SPLINE
  5
292
100
AcDbEntity
  8
Layer_1
 62
7
100
AcDbSpline
 70
8
 71
3
 72
8
 73
4
 74
0
 40
0
 40
0
 40
0
 40
0
 40
1
 40
1
 40
1
 40
1
 10
140.639574
 20
202.134383
 30
0.0
 10
141.468404
 20
202.134383
 30
0.0
 10
142.138880
 20
202.816119
 30
0.0
 10
142.138908
 20
203.642522
 30
0.0
  0
SPLINE
  5
293
100
AcDbEntity
  8
Layer_1
 62
7
100
AcDbSpline
 70
8
 71
3
 72
8
 73
4
 74
0
 40
0
 40
0
 40
0
 40
0
 40
1
 40
1
 40
1
 40
1
 10
142.138908
 20
203.642522
 30
0.0
 10
142.138908
 20
204.468897
 30
0.0
 10
141.468433
 20
205.141827
 30
0.0
 10
140.639574
 20
205.141827
 30
0.0
  0
SPLINE
  5
294
100
AcDbEntity
  8
Layer_1
 62
7
100
AcDbSpline
 70
8
 71
3
 72
8
 73
4
 74
0
 40
0
 40
0
 40
0
 40
0
 40
1
 40
1
 40
1
 40
1
 10
140.639574
 20
205.141827
 30
0.0
 10
139.810800
 20
205.141827
 30
0.0
 10
139.140269
 20
204.468897
 30
0.0
 10
139.140297
 20
203.642522
 30
0.0
  0
SPLINE
  5
295
100
AcDbEntity
  8
Layer_1
 62
7
100
AcDbSpline
 70
8
 71
3
 72
8
 73
4
 74
0
 40
0
 40
0
 40
0
 40
0
 40
1
 40
1
 40
1
 40
1
 10
139.140297
 20
203.642522
 30
0.0
 10
139.140297
 20
202.816119
 30
0.0
 10
139.810772
 20
202.134383
 30
0.0
 10
140.639574
 20
202.134383
 30
0.0
  0
LWPOLYLINE
  5
296
100
AcDbEntity
  8
Layer_1
 62
7
100
AcDbPolyline
 90
2
 70
0
 10
140.639574
 20
62.134550
 30
0.0
 10
140.639574
 20
62.134550
 30
0.0
  0
SPLINE
  5
297
100
AcDbEntity
  8
Layer_1
 62
7
100
AcDbSpline
 70
8
 71
3
 72
8
 73
4
 74
0
 40
0
 40
0
 40
0
 40
0
 40
1
 40
1
 40
1
 40
1
 10
140.489658
 20
223.142299
 30
0.0
 10
140.540091
 20
223.137219
 30
0.0
 10
140.587815
 20
223.142299
 30
0.0
 10
140.639574
 20
223.142299
 30
0.0
  0
SPLINE
  5
298
100
AcDbEntity
  8
Layer_1
 62
7
100
AcDbSpline
 70
8
 71
3
 72
8
 73
4
 74
0
 40
0
 40
0
 40
0
 40
0
 40
1
 40
1
 40
1
 40
1
 10
140.639574
 20
223.142299
 30
0.0
 10
141.468038
 20
223.142299
 30
0.0
 10
142.138908
 20
223.813170
 30
0.0
 10
142.138908
 20
224.641605
 30
0.0
  0
SPLINE
  5
299
100
AcDbEntity
  8
Layer_1
 62
7
100
AcDbSpline
 70
8
 71
3
 72
8
 73
4
 74
0
 40
0
 40
0
 40
0
 40
0
 40
1
 40
1
 40
1
 40
1
 10
142.138908
 20
224.641605
 30
0.0
 10
142.138908
 20
225.470040
 30
0.0
 10
141.468038
 20
226.140910
 30
0.0
 10
140.639574
 20
226.140910
 30
0.0
  0
SPLINE
  5
29a
100
AcDbEntity
  8
Layer_1
 62
7
100
AcDbSpline
 70
8
 71
3
 72
8
 73
4
 74
0
 40
0
 40
0
 40
0
 40
0
 40
1
 40
1
 40
1
 40
1
 10
140.639574
 20
226.140910
 30
0.0
 10
139.811139
 20
226.140910
 30
0.0
 10
139.140269
 20
225.470040
 30
0.0
 10
139.140297
 20
224.641605
 30
0.0
  0
SPLINE
  5
29b
100
AcDbEntity
  8
Layer_1
 62
7
100
AcDbSpline
 70
8
 71
3
 72
8
 73
4
 74
0
 40
0
 40
0
 40
0
 40
0
 40
1
 40
1
 40
1
 40
1
 10
139.140297
 20
224.641605
 30
0.0
 10
139.140297
 20
223.864957
 30
0.0
 10
139.733330
 20
223.219064
 30
0.0
 10
140.489658
 20
223.142299
 30
0.0
  0
LWPOLYLINE
  5
29c
100
AcDbEntity
  8
Layer_1
 62
7
100
AcDbPolyline
 90
2
 70
0
 10
140.639574
 20
202.134383
 30
0.0
 10
140.639574
 20
202.134383
 30
0.0
  0
SPLINE
  5
29d
100
AcDbEntity
  8
Layer_1
 62
7
100
AcDbSpline
 70
8
 71
3
 72
8
 73
4
 74
0
 40
0
 40
0
 40
0
 40
0
 40
1
 40
1
 40
1
 40
1
 10
140.639574
 20
237.138772
 30
0.0
 10
141.468038
 20
237.138772
 30
0.0
 10
142.138908
 20
237.809642
 30
0.0
 10
142.138908
 20
238.638077
 30
0.0
  0
SPLINE
  5
29e
100
AcDbEntity
  8
Layer_1
 62
7
100
AcDbSpline
 70
8
 71
3
 72
8
 73
4
 74
0
 40
0
 40
0
 40
0
 40
0
 40
1
 40
1
 40
1
 40
1
 10
142.138908
 20
238.638077
 30
0.0
 10
142.138908
 20
239.466512
 30
0.0
 10
141.468038
 20
240.137383
 30
0.0
 10
140.639574
 20
240.137383
 30
0.0
  0
SPLINE
  5
29f
100
AcDbEntity
  8
Layer_1
 62
7
100
AcDbSpline
 70
8
 71
3
 72
8
 73
4
 74
0
 40
0
 40
0
 40
0
 40
0
 40
1
 40
1
 40
1
 40
1
 10
140.639574
 20
240.137383
 30
0.0
 10
139.811139
 20
240.137383
 30
0.0
 10
139.140269
 20
239.466512
 30
0.0
 10
139.140297
 20
238.638077
 30
0.0
  0
SPLINE
  5
2a0
100
AcDbEntity
  8
Layer_1
 62
7
100
AcDbSpline
 70
8
 71
3
 72
8
 73
4
 74
0
 40
0
 40
0
 40
0
 40
0
 40
1
 40
1
 40
1
 40
1
 10
139.140297
 20
238.638077
 30
0.0
 10
139.140297
 20
237.809642
 30
0.0
 10
139.811139
 20
237.138772
 30
0.0
 10
140.639574
 20
237.138772
 30
0.0
  0
LWPOLYLINE
  5
2a1
100
AcDbEntity
  8
Layer_1
 62
7
100
AcDbPolyline
 90
2
 70
0
 10
140.489658
 20
223.142299
 30
0.0
 10
140.489658
 20
223.142299
 30
0.0
  0
LWPOLYLINE
  5
2a2
100
AcDbEntity
  8
Layer_1
 62
7
100
AcDbPolyline
 90
2
 70
0
 10
140.639574
 20
237.138772
 30
0.0
 10
140.639574
 20
237.138772
 30
0.0
  0
SPLINE
  5
2a3
100
AcDbEntity
  8
Layer_1
 62
7
100
AcDbSpline
 70
8
 71
3
 72
8
 73
4
 74
0
 40
0
 40
0
 40
0
 40
0
 40
1
 40
1
 40
1
 40
1
 10
228.740095
 20
237.137110
 30
0.0
 10
228.795495
 20
237.137110
 30
0.0
 10
228.840086
 20
237.181701
 30
0.0
 10
228.840086
 20
237.237101
 30
0.0
  0
LWPOLYLINE
  5
2a4
100
AcDbEntity
  8
Layer_1
 62
7
100
AcDbPolyline
 90
2
 70
0
 10
224.240090
 20
237.137110
 30
0.0
 10
228.740095
 20
237.137110
 30
0.0
  0
SPLINE
  5
2a5
100
AcDbEntity
  8
Layer_1
 62
7
100
AcDbSpline
 70
8
 71
3
 72
8
 73
4
 74
0
 40
0
 40
0
 40
0
 40
0
 40
1
 40
1
 40
1
 40
1
 10
228.840086
 20
245.037102
 30
0.0
 10
228.840086
 20
245.092502
 30
0.0
 10
228.795495
 20
245.137093
 30
0.0
 10
228.740095
 20
245.137093
 30
0.0
  0
LWPOLYLINE
  5
2a6
100
AcDbEntity
  8
Layer_1
 62
7
100
AcDbPolyline
 90
2
 70
0
 10
228.840086
 20
237.237101
 30
0.0
 10
228.840086
 20
245.037102
 30
0.0
  0
SPLINE
  5
2a7
100
AcDbEntity
  8
Layer_1
 62
7
100
AcDbSpline
 70
8
 71
3
 72
8
 73
4
 74
0
 40
0
 40
0
 40
0
 40
0
 40
1
 40
1
 40
1
 40
1
 10
224.240090
 20
245.137093
 30
0.0
 10
224.184690
 20
245.137093
 30
0.0
 10
224.140099
 20
245.092502
 30
0.0
 10
224.140099
 20
245.037102
 30
0.0
  0
LWPOLYLINE
  5
2a8
100
AcDbEntity
  8
Layer_1
 62
7
100
AcDbPolyline
 90
2
 70
0
 10
228.740095
 20
245.137093
 30
0.0
 10
224.240090
 20
245.137093
 30
0.0
  0
SPLINE
  5
2a9
100
AcDbEntity
  8
Layer_1
 62
7
100
AcDbSpline
 70
8
 71
3
 72
8
 73
4
 74
0
 40
0
 40
0
 40
0
 40
0
 40
1
 40
1
 40
1
 40
1
 10
224.140099
 20
237.237101
 30
0.0
 10
224.140099
 20
237.181701
 30
0.0
 10
224.184690
 20
237.137110
 30
0.0
 10
224.240090
 20
237.137110
 30
0.0
  0
LWPOLYLINE
  5
2aa
100
AcDbEntity
  8
Layer_1
 62
7
100
AcDbPolyline
 90
2
 70
0
 10
224.140099
 20
245.037102
 30
0.0
 10
224.140099
 20
237.237101
 30
0.0
  0
LWPOLYLINE
  5
2ab
100
AcDbEntity
  8
Layer_1
 62
7
100
AcDbPolyline
 90
2
 70
0
 10
224.240090
 20
237.137110
 30
0.0
 10
224.240090
 20
237.137110
 30
0.0
  0
SPLINE
  5
2ac
100
AcDbEntity
  8
Layer_1
 62
7
100
AcDbSpline
 70
8
 71
3
 72
8
 73
4
 74
0
 40
0
 40
0
 40
0
 40
0
 40
1
 40
1
 40
1
 40
1
 10
217.740117
 20
237.137110
 30
0.0
 10
217.795517
 20
237.137110
 30
0.0
 10
217.840108
 20
237.181701
 30
0.0
 10
217.840108
 20
237.237101
 30
0.0
  0
LWPOLYLINE
  5
2ad
100
AcDbEntity
  8
Layer_1
 62
7
100
AcDbPolyline
 90
2
 70
0
 10
213.240112
 20
237.137110
 30
0.0
 10
217.740117
 20
237.137110
 30
0.0
  0
SPLINE
  5
2ae
100
AcDbEntity
  8
Layer_1
 62
7
100
AcDbSpline
 70
8
 71
3
 72
8
 73
4
 74
0
 40
0
 40
0
 40
0
 40
0
 40
1
 40
1
 40
1
 40
1
 10
217.840108
 20
245.037102
 30
0.0
 10
217.840108
 20
245.092502
 30
0.0
 10
217.795517
 20
245.137093
 30
0.0
 10
217.740117
 20
245.137093
 30
0.0
  0
LWPOLYLINE
  5
2af
100
AcDbEntity
  8
Layer_1
 62
7
100
AcDbPolyline
 90
2
 70
0
 10
217.840108
 20
237.237101
 30
0.0
 10
217.840108
 20
245.037102
 30
0.0
  0
SPLINE
  5
2b0
100
AcDbEntity
  8
Layer_1
 62
7
100
AcDbSpline
 70
8
 71
3
 72
8
 73
4
 74
0
 40
0
 40
0
 40
0
 40
0
 40
1
 40
1
 40
1
 40
1
 10
213.240112
 20
245.137093
 30
0.0
 10
213.184712
 20
245.137093
 30
0.0
 10
213.140121
 20
245.092502
 30
0.0
 10
213.140121
 20
245.037102
 30
0.0
  0
LWPOLYLINE
  5
2b1
100
AcDbEntity
  8
Layer_1
 62
7
100
AcDbPolyline
 90
2
 70
0
 10
217.740117
 20
245.137093
 30
0.0
 10
213.240112
 20
245.137093
 30
0.0
  0
SPLINE
  5
2b2
100
AcDbEntity
  8
Layer_1
 62
7
100
AcDbSpline
 70
8
 71
3
 72
8
 73
4
 74
0
 40
0
 40
0
 40
0
 40
0
 40
1
 40
1
 40
1
 40
1
 10
213.140121
 20
237.237101
 30
0.0
 10
213.140121
 20
237.181701
 30
0.0
 10
213.184712
 20
237.137110
 30
0.0
 10
213.240112
 20
237.137110
 30
0.0
  0
LWPOLYLINE
  5
2b3
100
AcDbEntity
  8
Layer_1
 62
7
100
AcDbPolyline
 90
2
 70
0
 10
213.140121
 20
245.037102
 30
0.0
 10
213.140121
 20
237.237101
 30
0.0
  0
LWPOLYLINE
  5
2b4
100
AcDbEntity
  8
Layer_1
 62
7
100
AcDbPolyline
 90
2
 70
0
 10
213.240112
 20
237.137110
 30
0.0
 10
213.240112
 20
237.137110
 30
0.0
  0
SPLINE
  5
2b5
100
AcDbEntity
  8
Layer_1
 62
7
100
AcDbSpline
 70
8
 71
3
 72
8
 73
4
 74
0
 40
0
 40
0
 40
0
 40
0
 40
1
 40
1
 40
1
 40
1
 10
54.742108
 20
237.141110
 30
0.0
 10
54.797508
 20
237.141110
 30
0.0
 10
54.842100
 20
237.185701
 30
0.0
 10
54.842100
 20
237.241101
 30
0.0
  0
LWPOLYLINE
  5
2b6
100
AcDbEntity
  8
Layer_1
 62
7
100
AcDbPolyline
 90
2
 70
0
 10
50.242103
 20
237.141110
 30
0.0
 10
54.742108
 20
237.141110
 30
0.0
  0
SPLINE
  5
2b7
100
AcDbEntity
  8
Layer_1
 62
7
100
AcDbSpline
 70
8
 71
3
 72
8
 73
4
 74
0
 40
0
 40
0
 40
0
 40
0
 40
1
 40
1
 40
1
 40
1
 10
54.842100
 20
245.041101
 30
0.0
 10
54.842100
 20
245.096501
 30
0.0
 10
54.797508
 20
245.141092
 30
0.0
 10
54.742108
 20
245.141092
 30
0.0
  0
LWPOLYLINE
  5
2b8
100
AcDbEntity
  8
Layer_1
 62
7
100
AcDbPolyline
 90
2
 70
0
 10
54.842100
 20
237.241101
 30
0.0
 10
54.842100
 20
245.041101
 30
0.0
  0
SPLINE
  5
2b9
100
AcDbEntity
  8
Layer_1
 62
7
100
AcDbSpline
 70
8
 71
3
 72
8
 73
4
 74
0
 40
0
 40
0
 40
0
 40
0
 40
1
 40
1
 40
1
 40
1
 10
50.242103
 20
245.141092
 30
0.0
 10
50.186703
 20
245.141092
 30
0.0
 10
50.142112
 20
245.096501
 30
0.0
 10
50.142112
 20
245.041101
 30
0.0
  0
LWPOLYLINE
  5
2ba
100
AcDbEntity
  8
Layer_1
 62
7
100
AcDbPolyline
 90
2
 70
0
 10
54.742108
 20
245.141092
 30
0.0
 10
50.242103
 20
245.141092
 30
0.0
  0
SPLINE
  5
2bb
100
AcDbEntity
  8
Layer_1
 62
7
100
AcDbSpline
 70
8
 71
3
 72
8
 73
4
 74
0
 40
0
 40
0
 40
0
 40
0
 40
1
 40
1
 40
1
 40
1
 10
50.142112
 20
237.241101
 30
0.0
 10
50.142112
 20
237.185701
 30
0.0
 10
50.186703
 20
237.141110
 30
0.0
 10
50.242103
 20
237.141110
 30
0.0
  0
LWPOLYLINE
  5
2bc
100
AcDbEntity
  8
Layer_1
 62
7
100
AcDbPolyline
 90
2
 70
0
 10
50.142112
 20
245.041101
 30
0.0
 10
50.142112
 20
237.241101
 30
0.0
  0
LWPOLYLINE
  5
2bd
100
AcDbEntity
  8
Layer_1
 62
7
100
AcDbPolyline
 90
2
 70
0
 10
50.242103
 20
237.141110
 30
0.0
 10
50.242103
 20
237.141110
 30
0.0
  0
SPLINE
  5
2be
100
AcDbEntity
  8
Layer_1
 62
7
100
AcDbSpline
 70
8
 71
3
 72
8
 73
4
 74
0
 40
0
 40
0
 40
0
 40
0
 40
1
 40
1
 40
1
 40
1
 10
43.742130
 20
237.141110
 30
0.0
 10
43.797530
 20
237.141110
 30
0.0
 10
43.842122
 20
237.185701
 30
0.0
 10
43.842122
 20
237.241101
 30
0.0
  0
LWPOLYLINE
  5
2bf
100
AcDbEntity
  8
Layer_1
 62
7
100
AcDbPolyline
 90
2
 70
0
 10
39.242125
 20
237.141110
 30
0.0
 10
43.742130
 20
237.141110
 30
0.0
  0
SPLINE
  5
2c0
100
AcDbEntity
  8
Layer_1
 62
7
100
AcDbSpline
 70
8
 71
3
 72
8
 73
4
 74
0
 40
0
 40
0
 40
0
 40
0
 40
1
 40
1
 40
1
 40
1
 10
43.842122
 20
245.041101
 30
0.0
 10
43.842122
 20
245.096501
 30
0.0
 10
43.797530
 20
245.141092
 30
0.0
 10
43.742130
 20
245.141092
 30
0.0
  0
LWPOLYLINE
  5
2c1
100
AcDbEntity
  8
Layer_1
 62
7
100
AcDbPolyline
 90
2
 70
0
 10
43.842122
 20
237.241101
 30
0.0
 10
43.842122
 20
245.041101
 30
0.0
  0
SPLINE
  5
2c2
100
AcDbEntity
  8
Layer_1
 62
7
100
AcDbSpline
 70
8
 71
3
 72
8
 73
4
 74
0
 40
0
 40
0
 40
0
 40
0
 40
1
 40
1
 40
1
 40
1
 10
39.242125
 20
245.141092
 30
0.0
 10
39.186725
 20
245.141092
 30
0.0
 10
39.142134
 20
245.096501
 30
0.0
 10
39.142134
 20
245.041101
 30
0.0
  0
LWPOLYLINE
  5
2c3
100
AcDbEntity
  8
Layer_1
 62
7
100
AcDbPolyline
 90
2
 70
0
 10
43.742130
 20
245.141092
 30
0.0
 10
39.242125
 20
245.141092
 30
0.0
  0
SPLINE
  5
2c4
100
AcDbEntity
  8
Layer_1
 62
7
100
AcDbSpline
 70
8
 71
3
 72
8
 73
4
 74
0
 40
0
 40
0
 40
0
 40
0
 40
1
 40
1
 40
1
 40
1
 10
39.142134
 20
237.241101
 30
0.0
 10
39.142134
 20
237.185701
 30
0.0
 10
39.186725
 20
237.141110
 30
0.0
 10
39.242125
 20
237.141110
 30
0.0
  0
LWPOLYLINE
  5
2c5
100
AcDbEntity
  8
Layer_1
 62
7
100
AcDbPolyline
 90
2
 70
0
 10
39.142134
 20
245.041101
 30
0.0
 10
39.142134
 20
237.241101
 30
0.0
  0
SPLINE
  5
2c6
100
AcDbEntity
  8
Layer_1
 62
7
100
AcDbSpline
 70
8
 71
3
 72
8
 73
4
 74
0
 40
0
 40
0
 40
0
 40
0
 40
1
 40
1
 40
1
 40
1
 10
53.146424
 20
190.651268
 30
0.0
 10
53.975226
 20
190.651268
 30
0.0
 10
54.645729
 20
189.980765
 30
0.0
 10
54.645729
 20
189.151963
 30
0.0
  0
SPLINE
  5
2c7
100
AcDbEntity
  8
Layer_1
 62
7
100
AcDbSpline
 70
8
 71
3
 72
8
 73
4
 74
0
 40
0
 40
0
 40
0
 40
0
 40
1
 40
1
 40
1
 40
1
 10
54.645729
 20
189.151963
 30
0.0
 10
54.645729
 20
188.323133
 30
0.0
 10
53.975226
 20
187.652657
 30
0.0
 10
53.146424
 20
187.652657
 30
0.0
  0
SPLINE
  5
2c8
100
AcDbEntity
  8
Layer_1
 62
7
100
AcDbSpline
 70
8
 71
3
 72
8
 73
4
 74
0
 40
0
 40
0
 40
0
 40
0
 40
1
 40
1
 40
1
 40
1
 10
53.146424
 20
187.652657
 30
0.0
 10
52.317594
 20
187.652657
 30
0.0
 10
51.647118
 20
188.323133
 30
0.0
 10
51.647118
 20
189.151963
 30
0.0
  0
SPLINE
  5
2c9
100
AcDbEntity
  8
Layer_1
 62
7
100
AcDbSpline
 70
8
 71
3
 72
8
 73
4
 74
0
 40
0
 40
0
 40
0
 40
0
 40
1
 40
1
 40
1
 40
1
 10
51.647118
 20
189.151963
 30
0.0
 10
51.647118
 20
189.980765
 30
0.0
 10
52.317594
 20
190.651268
 30
0.0
 10
53.146424
 20
190.651268
 30
0.0
  0
LWPOLYLINE
  5
2ca
100
AcDbEntity
  8
Layer_1
 62
7
100
AcDbPolyline
 90
2
 70
0
 10
39.242125
 20
237.141110
 30
0.0
 10
39.242125
 20
237.141110
 30
0.0
  0
SPLINE
  5
2cb
100
AcDbEntity
  8
Layer_1
 62
7
100
AcDbSpline
 70
8
 71
3
 72
8
 73
4
 74
0
 40
0
 40
0
 40
0
 40
0
 40
1
 40
1
 40
1
 40
1
 10
37.146540
 20
190.651268
 30
0.0
 10
37.975371
 20
190.651268
 30
0.0
 10
38.645846
 20
189.980765
 30
0.0
 10
38.645846
 20
189.151963
 30
0.0
  0
SPLINE
  5
2cc
100
AcDbEntity
  8
Layer_1
 62
7
100
AcDbSpline
 70
8
 71
3
 72
8
 73
4
 74
0
 40
0
 40
0
 40
0
 40
0
 40
1
 40
1
 40
1
 40
1
 10
38.645846
 20
189.151963
 30
0.0
 10
38.645846
 20
188.323133
 30
0.0
 10
37.975371
 20
187.652657
 30
0.0
 10
37.146540
 20
187.652657
 30
0.0
  0
SPLINE
  5
2cd
100
AcDbEntity
  8
Layer_1
 62
7
100
AcDbSpline
 70
8
 71
3
 72
8
 73
4
 74
0
 40
0
 40
0
 40
0
 40
0
 40
1
 40
1
 40
1
 40
1
 10
37.146540
 20
187.652657
 30
0.0
 10
36.317738
 20
187.652657
 30
0.0
 10
35.647235
 20
188.323133
 30
0.0
 10
35.647235
 20
189.151963
 30
0.0
  0
SPLINE
  5
2ce
100
AcDbEntity
  8
Layer_1
 62
7
100
AcDbSpline
 70
8
 71
3
 72
8
 73
4
 74
0
 40
0
 40
0
 40
0
 40
0
 40
1
 40
1
 40
1
 40
1
 10
35.647235
 20
189.151963
 30
0.0
 10
35.647235
 20
189.980765
 30
0.0
 10
36.317738
 20
190.651268
 30
0.0
 10
37.146540
 20
190.651268
 30
0.0
  0
LWPOLYLINE
  5
2cf
100
AcDbEntity
  8
Layer_1
 62
7
100
AcDbPolyline
 90
2
 70
0
 10
53.146424
 20
190.651268
 30
0.0
 10
53.146424
 20
190.651268
 30
0.0
  0
SPLINE
  5
2d0
100
AcDbEntity
  8
Layer_1
 62
7
100
AcDbSpline
 70
8
 71
3
 72
8
 73
4
 74
0
 40
0
 40
0
 40
0
 40
0
 40
1
 40
1
 40
1
 40
1
 10
21.156902
 20
190.651268
 30
0.0
 10
21.983277
 20
190.651268
 30
0.0
 10
22.647374
 20
189.980765
 30
0.0
 10
22.647374
 20
189.151963
 30
0.0
  0
SPLINE
  5
2d1
100
AcDbEntity
  8
Layer_1
 62
7
100
AcDbSpline
 70
8
 71
3
 72
8
 73
4
 74
0
 40
0
 40
0
 40
0
 40
0
 40
1
 40
1
 40
1
 40
1
 10
22.647374
 20
189.151963
 30
0.0
 10
22.647374
 20
188.323133
 30
0.0
 10
21.983277
 20
187.652657
 30
0.0
 10
21.156902
 20
187.652657
 30
0.0
  0
SPLINE
  5
2d2
100
AcDbEntity
  8
Layer_1
 62
7
100
AcDbSpline
 70
8
 71
3
 72
8
 73
4
 74
0
 40
0
 40
0
 40
0
 40
0
 40
1
 40
1
 40
1
 40
1
 10
21.156902
 20
187.652657
 30
0.0
 10
20.330527
 20
187.652657
 30
0.0
 10
19.648763
 20
188.323133
 30
0.0
 10
19.648763
 20
189.151963
 30
0.0
  0
SPLINE
  5
2d3
100
AcDbEntity
  8
Layer_1
 62
7
100
AcDbSpline
 70
8
 71
3
 72
8
 73
4
 74
0
 40
0
 40
0
 40
0
 40
0
 40
1
 40
1
 40
1
 40
1
 10
19.648763
 20
189.151963
 30
0.0
 10
19.648763
 20
189.980765
 30
0.0
 10
20.330527
 20
190.651268
 30
0.0
 10
21.156902
 20
190.651268
 30
0.0
  0
LWPOLYLINE
  5
2d4
100
AcDbEntity
  8
Layer_1
 62
7
100
AcDbPolyline
 90
2
 70
0
 10
37.146540
 20
190.651268
 30
0.0
 10
37.146540
 20
190.651268
 30
0.0
  0
SPLINE
  5
2d5
100
AcDbEntity
  8
Layer_1
 62
1
100
AcDbSpline
 70
8
 71
3
 72
8
 73
4
 74
0
 40
0
 40
0
 40
0
 40
0
 40
1
 40
1
 40
1
 40
1
 10
19.228760
 20
193.000012
 30
0.0
 10
18.124170
 20
193.000012
 30
0.0
 10
17.235565
 20
192.102573
 30
0.0
 10
17.235565
 20
190.998012
 30
0.0
  0
LWPOLYLINE
  5
2d6
100
AcDbEntity
  8
Layer_1
 62
7
100
AcDbPolyline
 90
2
 70
0
 10
21.156902
 20
190.651268
 30
0.0
 10
21.156902
 20
190.651268
 30
0.0
  0
SPLINE
  5
2d7
100
AcDbEntity
  8
Layer_1
 62
1
100
AcDbSpline
 70
8
 71
3
 72
8
 73
4
 74
0
 40
0
 40
0
 40
0
 40
0
 40
1
 40
1
 40
1
 40
1
 10
17.235565
 20
186.993984
 30
0.0
 10
17.235565
 20
185.889395
 30
0.0
 10
18.124170
 20
185.000790
 30
0.0
 10
19.228760
 20
185.000790
 30
0.0
  0
LWPOLYLINE
  5
2d8
100
AcDbEntity
  8
Layer_1
 62
1
100
AcDbPolyline
 90
2
 70
0
 10
17.235565
 20
190.998012
 30
0.0
 10
17.235565
 20
186.993984
 30
0.0
  0
SPLINE
  5
2d9
100
AcDbEntity
  8
Layer_1
 62
1
100
AcDbSpline
 70
8
 71
3
 72
8
 73
4
 74
0
 40
0
 40
0
 40
0
 40
0
 40
1
 40
1
 40
1
 40
1
 10
55.230832
 20
185.000790
 30
0.0
 10
56.335394
 20
185.000790
 30
0.0
 10
57.223829
 20
185.889423
 30
0.0
 10
57.223829
 20
186.993984
 30
0.0
  0
LWPOLYLINE
  5
2da
100
AcDbEntity
  8
Layer_1
 62
1
100
AcDbPolyline
 90
2
 70
0
 10
19.228760
 20
185.000790
 30
0.0
 10
55.230832
 20
185.000790
 30
0.0
  0
SPLINE
  5
2db
100
AcDbEntity
  8
Layer_1
 62
1
100
AcDbSpline
 70
8
 71
3
 72
8
 73
4
 74
0
 40
0
 40
0
 40
0
 40
0
 40
1
 40
1
 40
1
 40
1
 10
57.223829
 20
190.998012
 30
0.0
 10
57.223829
 20
192.102602
 30
0.0
 10
56.335394
 20
193.000012
 30
0.0
 10
55.230832
 20
193.000012
 30
0.0
  0
LWPOLYLINE
  5
2dc
100
AcDbEntity
  8
Layer_1
 62
1
100
AcDbPolyline
 90
2
 70
0
 10
57.223829
 20
186.993984
 30
0.0
 10
57.223829
 20
190.998012
 30
0.0
  0
LWPOLYLINE
  5
2dd
100
AcDbEntity
  8
Layer_1
 62
1
100
AcDbPolyline
 90
2
 70
0
 10
55.230832
 20
193.000012
 30
0.0
 10
19.228760
 20
193.000012
 30
0.0
  0
SPLINE
  5
2de
100
AcDbEntity
  8
Layer_1
 62
1
100
AcDbSpline
 70
8
 71
3
 72
8
 73
4
 74
0
 40
0
 40
0
 40
0
 40
0
 40
1
 40
1
 40
1
 40
1
 10
18.048563
 20
196.095008
 30
0.0
 10
16.761545
 20
195.788788
 30
0.0
 10
15.419324
 20
195.315067
 30
0.0
 10
14.457370
 20
194.399600
 30
0.0
  0
SPLINE
  5
2df
100
AcDbEntity
  8
Layer_1
 62
1
100
AcDbSpline
 70
8
 71
3
 72
8
 73
4
 74
0
 40
0
 40
0
 40
0
 40
0
 40
1
 40
1
 40
1
 40
1
 10
14.457370
 20
194.399600
 30
0.0
 10
13.495387
 20
193.484136
 30
0.0
 10
12.900858
 20
192.218352
 30
0.0
 10
12.900858
 20
190.821397
 30
0.0
  0
LWPOLYLINE
  5
2e0
100
AcDbEntity
  8
Layer_1
 62
1
100
AcDbPolyline
 90
12
 70
0
 10
101.140204
 20
57.274042
 30
0.0
 10
89.141102
 20
46.141115
 30
0.0
 10
79.141122
 20
46.143091
 30
0.0
 10
79.141122
 20
51.143109
 30
0.0
 10
69.141114
 20
51.143109
 30
0.0
 10
69.141114
 20
46.141115
 30
0.0
 10
0.141111
 20
46.141115
 30
0.0
 10
0.141111
 20
52.217331
 30
0.0
 10
0.141111
 20
210.050894
 30
0.0
 10
34.157327
 20
210.050894
 30
0.0
 10
34.157327
 20
199.931985
 30
0.0
 10
18.048563
 20
196.095008
 30
0.0
  0
SPLINE
  5
2e1
100
AcDbEntity
  8
Layer_1
 62
1
100
AcDbSpline
 70
8
 71
3
 72
8
 73
4
 74
0
 40
0
 40
0
 40
0
 40
0
 40
1
 40
1
 40
1
 40
1
 10
12.900858
 20
66.378452
 30
0.0
 10
12.900858
 20
63.584537
 30
0.0
 10
15.281487
 20
61.318998
 30
0.0
 10
18.217332
 20
61.318998
 30
0.0
  0
LWPOLYLINE
  5
2e2
100
AcDbEntity
  8
Layer_1
 62
1
100
AcDbPolyline
 90
2
 70
0
 10
12.900858
 20
190.821397
 30
0.0
 10
12.900858
 20
66.378452
 30
0.0
  0
SPLINE
  5
2e3
100
AcDbEntity
  8
Layer_1
 62
7
100
AcDbSpline
 70
8
 71
3
 72
8
 73
4
 74
0
 40
0
 40
0
 40
0
 40
0
 40
1
 40
1
 40
1
 40
1
 10
29.770239
 20
54.596205
 30
0.0
 10
29.775319
 20
54.642856
 30
0.0
 10
29.770239
 20
54.695180
 30
0.0
 10
29.770239
 20
54.743102
 30
0.0
  0
SPLINE
  5
2e4
100
AcDbEntity
  8
Layer_1
 62
7
100
AcDbSpline
 70
8
 71
3
 72
8
 73
4
 74
0
 40
0
 40
0
 40
0
 40
0
 40
1
 40
1
 40
1
 40
1
 10
29.770239
 20
54.743102
 30
0.0
 10
29.770239
 20
55.509420
 30
0.0
 10
29.118532
 20
56.130224
 30
0.0
 10
28.313747
 20
56.130224
 30
0.0
  0
SPLINE
  5
2e5
100
AcDbEntity
  8
Layer_1
 62
7
100
AcDbSpline
 70
8
 71
3
 72
8
 73
4
 74
0
 40
0
 40
0
 40
0
 40
0
 40
1
 40
1
 40
1
 40
1
 10
28.313747
 20
56.130224
 30
0.0
 10
27.508962
 20
56.130224
 30
0.0
 10
26.857254
 20
55.509420
 30
0.0
 10
26.857254
 20
54.743102
 30
0.0
  0
SPLINE
  5
2e6
100
AcDbEntity
  8
Layer_1
 62
7
100
AcDbSpline
 70
8
 71
3
 72
8
 73
4
 74
0
 40
0
 40
0
 40
0
 40
0
 40
1
 40
1
 40
1
 40
1
 10
26.857254
 20
54.743102
 30
0.0
 10
26.857254
 20
53.976473
 30
0.0
 10
27.508962
 20
53.355951
 30
0.0
 10
28.313747
 20
53.355951
 30
0.0
  0
SPLINE
  5
2e7
100
AcDbEntity
  8
Layer_1
 62
7
100
AcDbSpline
 70
8
 71
3
 72
8
 73
4
 74
0
 40
0
 40
0
 40
0
 40
0
 40
1
 40
1
 40
1
 40
1
 10
28.313747
 20
53.355951
 30
0.0
 10
29.068212
 20
53.355951
 30
0.0
 10
29.695620
 20
53.896294
 30
0.0
 10
29.770239
 20
54.596205
 30
0.0
  0
LWPOLYLINE
  5
2e8
100
AcDbEntity
  8
Layer_1
 62
1
100
AcDbPolyline
 90
3
 70
0
 10
18.217332
 20
61.318998
 30
0.0
 10
101.138990
 20
61.318998
 30
0.0
 10
101.140204
 20
57.274042
 30
0.0
  0
SPLINE
  5
2e9
100
AcDbEntity
  8
Layer_1
 62
7
100
AcDbSpline
 70
8
 71
3
 72
8
 73
4
 74
0
 40
0
 40
0
 40
0
 40
0
 40
1
 40
1
 40
1
 40
1
 10
29.770239
 20
204.337361
 30
0.0
 10
29.775319
 20
204.384010
 30
0.0
 10
29.770239
 20
204.436337
 30
0.0
 10
29.770239
 20
204.484235
 30
0.0
  0
SPLINE
  5
2ea
100
AcDbEntity
  8
Layer_1
 62
7
100
AcDbSpline
 70
8
 71
3
 72
8
 73
4
 74
0
 40
0
 40
0
 40
0
 40
0
 40
1
 40
1
 40
1
 40
1
 10
29.770239
 20
204.484235
 30
0.0
 10
29.770239
 20
205.250590
 30
0.0
 10
29.118532
 20
205.871377
 30
0.0
 10
28.313747
 20
205.871377
 30
0.0
  0
SPLINE
  5
2eb
100
AcDbEntity
  8
Layer_1
 62
7
100
AcDbSpline
 70
8
 71
3
 72
8
 73
4
 74
0
 40
0
 40
0
 40
0
 40
0
 40
1
 40
1
 40
1
 40
1
 10
28.313747
 20
205.871377
 30
0.0
 10
27.508962
 20
205.871377
 30
0.0
 10
26.857254
 20
205.250590
 30
0.0
 10
26.857254
 20
204.484235
 30
0.0
  0
SPLINE
  5
2ec
100
AcDbEntity
  8
Layer_1
 62
7
100
AcDbSpline
 70
8
 71
3
 72
8
 73
4
 74
0
 40
0
 40
0
 40
0
 40
0
 40
1
 40
1
 40
1
 40
1
 10
26.857254
 20
204.484235
 30
0.0
 10
26.857254
 20
203.717881
 30
0.0
 10
27.508962
 20
203.097096
 30
0.0
 10
28.313747
 20
203.097096
 30
0.0
  0
SPLINE
  5
2ed
100
AcDbEntity
  8
Layer_1
 62
7
100
AcDbSpline
 70
8
 71
3
 72
8
 73
4
 74
0
 40
0
 40
0
 40
0
 40
0
 40
1
 40
1
 40
1
 40
1
 10
28.313747
 20
203.097096
 30
0.0
 10
29.068212
 20
203.097096
 30
0.0
 10
29.695620
 20
203.637631
 30
0.0
 10
29.770239
 20
204.337361
 30
0.0
  0
LWPOLYLINE
  5
2ee
100
AcDbEntity
  8
Layer_1
 62
7
100
AcDbPolyline
 90
2
 70
0
 10
29.770239
 20
54.596205
 30
0.0
 10
29.770239
 20
54.596205
 30
0.0
  0
SPLINE
  5
2ef
100
AcDbEntity
  8
Layer_1
 62
7
100
AcDbSpline
 70
8
 71
3
 72
8
 73
4
 74
0
 40
0
 40
0
 40
0
 40
0
 40
1
 40
1
 40
1
 40
1
 10
65.917600
 20
54.596205
 30
0.0
 10
65.922680
 20
54.642856
 30
0.0
 10
65.917600
 20
54.695180
 30
0.0
 10
65.917600
 20
54.743102
 30
0.0
  0
SPLINE
  5
2f0
100
AcDbEntity
  8
Layer_1
 62
7
100
AcDbSpline
 70
8
 71
3
 72
8
 73
4
 74
0
 40
0
 40
0
 40
0
 40
0
 40
1
 40
1
 40
1
 40
1
 10
65.917600
 20
54.743102
 30
0.0
 10
65.917600
 20
55.509420
 30
0.0
 10
65.265864
 20
56.130224
 30
0.0
 10
64.461108
 20
56.130224
 30
0.0
  0
SPLINE
  5
2f1
100
AcDbEntity
  8
Layer_1
 62
7
100
AcDbSpline
 70
8
 71
3
 72
8
 73
4
 74
0
 40
0
 40
0
 40
0
 40
0
 40
1
 40
1
 40
1
 40
1
 10
64.461108
 20
56.130224
 30
0.0
 10
63.656323
 20
56.130224
 30
0.0
 10
63.004587
 20
55.509420
 30
0.0
 10
63.004587
 20
54.743102
 30
0.0
  0
SPLINE
  5
2f2
100
AcDbEntity
  8
Layer_1
 62
7
100
AcDbSpline
 70
8
 71
3
 72
8
 73
4
 74
0
 40
0
 40
0
 40
0
 40
0
 40
1
 40
1
 40
1
 40
1
 10
63.004587
 20
54.743102
 30
0.0
 10
63.004587
 20
53.976473
 30
0.0
 10
63.656323
 20
53.355951
 30
0.0
 10
64.461108
 20
53.355951
 30
0.0
  0
SPLINE
  5
2f3
100
AcDbEntity
  8
Layer_1
 62
7
100
AcDbSpline
 70
8
 71
3
 72
8
 73
4
 74
0
 40
0
 40
0
 40
0
 40
0
 40
1
 40
1
 40
1
 40
1
 10
64.461108
 20
53.355951
 30
0.0
 10
65.215572
 20
53.355951
 30
0.0
 10
65.842981
 20
53.896294
 30
0.0
 10
65.917600
 20
54.596205
 30
0.0
  0
LWPOLYLINE
  5
2f4
100
AcDbEntity
  8
Layer_1
 62
7
100
AcDbPolyline
 90
2
 70
0
 10
29.770239
 20
204.337361
 30
0.0
 10
29.770239
 20
204.337361
 30
0.0
  0
SPLINE
  5
2f5
100
AcDbEntity
  8
Layer_1
 62
1
100
AcDbSpline
 70
8
 71
3
 72
8
 73
4
 74
0
 40
0
 40
0
 40
0
 40
0
 40
1
 40
1
 40
1
 40
1
 10
261.003246
 20
43.140317
 30
0.0
 10
261.003246
 20
45.274199
 30
0.0
 10
259.274211
 20
47.003233
 30
0.0
 10
257.140343
 20
47.003233
 30
0.0
  0
SPLINE
  5
2f6
100
AcDbEntity
  8
Layer_1
 62
1
100
AcDbSpline
 70
8
 71
3
 72
8
 73
4
 74
0
 40
0
 40
0
 40
0
 40
0
 40
1
 40
1
 40
1
 40
1
 10
257.140343
 20
47.003233
 30
0.0
 10
255.006489
 20
47.003233
 30
0.0
 10
253.277426
 20
45.274199
 30
0.0
 10
253.277426
 20
43.140317
 30
0.0
  0
SPLINE
  5
2f7
100
AcDbEntity
  8
Layer_1
 62
1
100
AcDbSpline
 70
8
 71
3
 72
8
 73
4
 74
0
 40
0
 40
0
 40
0
 40
0
 40
1
 40
1
 40
1
 40
1
 10
253.277426
 20
43.140317
 30
0.0
 10
253.277426
 20
41.006463
 30
0.0
 10
255.006489
 20
39.277400
 30
0.0
 10
257.140343
 20
39.277400
 30
0.0
  0
SPLINE
  5
2f8
100
AcDbEntity
  8
Layer_1
 62
1
100
AcDbSpline
 70
8
 71
3
 72
8
 73
4
 74
0
 40
0
 40
0
 40
0
 40
0
 40
1
 40
1
 40
1
 40
1
 10
257.140343
 20
39.277400
 30
0.0
 10
259.274211
 20
39.277400
 30
0.0
 10
261.003246
 20
41.006463
 30
0.0
 10
261.003246
 20
43.140317
 30
0.0
  0
LWPOLYLINE
  5
2f9
100
AcDbEntity
  8
Layer_1
 62
7
100
AcDbPolyline
 90
2
 70
0
 10
65.917600
 20
54.596205
 30
0.0
 10
65.917600
 20
54.596205
 30
0.0
  0
SPLINE
  5
2fa
100
AcDbEntity
  8
Layer_1
 62
7
100
AcDbSpline
 70
8
 71
3
 72
8
 73
4
 74
0
 40
0
 40
0
 40
0
 40
0
 40
1
 40
1
 40
1
 40
1
 10
258.560274
 20
43.113873
 30
0.0
 10
258.560274
 20
42.347413
 30
0.0
 10
257.933261
 20
41.729234
 30
0.0
 10
257.166816
 20
41.729234
 30
0.0
  0
SPLINE
  5
2fb
100
AcDbEntity
  8
Layer_1
 62
7
100
AcDbSpline
 70
8
 71
3
 72
8
 73
4
 74
0
 40
0
 40
0
 40
0
 40
0
 40
1
 40
1
 40
1
 40
1
 10
257.166816
 20
41.729234
 30
0.0
 10
256.400356
 20
41.729234
 30
0.0
 10
255.782120
 20
42.347413
 30
0.0
 10
255.782120
 20
43.113873
 30
0.0
  0
SPLINE
  5
2fc
100
AcDbEntity
  8
Layer_1
 62
7
100
AcDbSpline
 70
8
 71
3
 72
8
 73
4
 74
0
 40
0
 40
0
 40
0
 40
0
 40
1
 40
1
 40
1
 40
1
 10
255.782120
 20
43.113873
 30
0.0
 10
255.782120
 20
43.880332
 30
0.0
 10
256.400328
 20
44.507345
 30
0.0
 10
257.166816
 20
44.507345
 30
0.0
  0
SPLINE
  5
2fd
100
AcDbEntity
  8
Layer_1
 62
7
100
AcDbSpline
 70
8
 71
3
 72
8
 73
4
 74
0
 40
0
 40
0
 40
0
 40
0
 40
1
 40
1
 40
1
 40
1
 10
257.166816
 20
44.507345
 30
0.0
 10
257.933261
 20
44.507345
 30
0.0
 10
258.560274
 20
43.880332
 30
0.0
 10
258.560274
 20
43.113873
 30
0.0
  0
LWPOLYLINE
  5
2fe
100
AcDbEntity
  8
Layer_1
 62
1
100
AcDbPolyline
 90
2
 70
0
 10
261.003246
 20
43.140317
 30
0.0
 10
261.003246
 20
43.140317
 30
0.0
  0
SPLINE
  5
2ff
100
AcDbEntity
  8
Layer_1
 62
7
100
AcDbSpline
 70
8
 71
3
 72
8
 73
4
 74
0
 40
0
 40
0
 40
0
 40
0
 40
1
 40
1
 40
1
 40
1
 10
230.988955
 20
127.738652
 30
0.0
 10
230.988955
 20
124.104674
 30
0.0
 10
228.788383
 20
121.158754
 30
0.0
 10
226.073857
 20
121.158754
 30
0.0
  0
SPLINE
  5
300
100
AcDbEntity
  8
Layer_1
 62
7
100
AcDbSpline
 70
8
 71
3
 72
8
 73
4
 74
0
 40
0
 40
0
 40
0
 40
0
 40
1
 40
1
 40
1
 40
1
 10
226.073857
 20
121.158754
 30
0.0
 10
223.359331
 20
121.158754
 30
0.0
 10
221.158760
 20
124.104674
 30
0.0
 10
221.158760
 20
127.738652
 30
0.0
  0
SPLINE
  5
301
100
AcDbEntity
  8
Layer_1
 62
7
100
AcDbSpline
 70
8
 71
3
 72
8
 73
4
 74
0
 40
0
 40
0
 40
0
 40
0
 40
1
 40
1
 40
1
 40
1
 10
221.158760
 20
127.738652
 30
0.0
 10
221.158760
 20
131.372633
 30
0.0
 10
223.359331
 20
134.318553
 30
0.0
 10
226.073857
 20
134.318553
 30
0.0
  0
SPLINE
  5
302
100
AcDbEntity
  8
Layer_1
 62
7
100
AcDbSpline
 70
8
 71
3
 72
8
 73
4
 74
0
 40
0
 40
0
 40
0
 40
0
 40
1
 40
1
 40
1
 40
1
 10
226.073857
 20
134.318553
 30
0.0
 10
228.788383
 20
134.318553
 30
0.0
 10
230.988955
 20
131.372633
 30
0.0
 10
230.988955
 20
127.738652
 30
0.0
  0
LWPOLYLINE
  5
303
100
AcDbEntity
  8
Layer_1
 62
7
100
AcDbPolyline
 90
2
 70
0
 10
258.560274
 20
43.113873
 30
0.0
 10
258.560274
 20
43.113873
 30
0.0
  0
SPLINE
  5
304
100
AcDbEntity
  8
Layer_1
 62
7
100
AcDbSpline
 70
8
 71
3
 72
8
 73
4
 74
0
 40
0
 40
0
 40
0
 40
0
 40
1
 40
1
 40
1
 40
1
 10
246.865171
 20
99.253424
 30
0.0
 10
246.865171
 20
95.488097
 30
0.0
 10
242.570514
 20
92.435697
 30
0.0
 10
237.272788
 20
92.435697
 30
0.0
  0
SPLINE
  5
305
100
AcDbEntity
  8
Layer_1
 62
7
100
AcDbSpline
 70
8
 71
3
 72
8
 73
4
 74
0
 40
0
 40
0
 40
0
 40
0
 40
1
 40
1
 40
1
 40
1
 10
237.272788
 20
92.435697
 30
0.0
 10
231.975059
 20
92.435697
 30
0.0
 10
227.680401
 20
95.488097
 30
0.0
 10
227.680401
 20
99.253424
 30
0.0
  0
SPLINE
  5
306
100
AcDbEntity
  8
Layer_1
 62
7
100
AcDbSpline
 70
8
 71
3
 72
8
 73
4
 74
0
 40
0
 40
0
 40
0
 40
0
 40
1
 40
1
 40
1
 40
1
 10
227.680401
 20
99.253424
 30
0.0
 10
227.680401
 20
103.018751
 30
0.0
 10
231.975059
 20
106.071151
 30
0.0
 10
237.272788
 20
106.071151
 30
0.0
  0
SPLINE
  5
307
100
AcDbEntity
  8
Layer_1
 62
7
100
AcDbSpline
 70
8
 71
3
 72
8
 73
4
 74
0
 40
0
 40
0
 40
0
 40
0
 40
1
 40
1
 40
1
 40
1
 10
237.272788
 20
106.071151
 30
0.0
 10
242.570514
 20
106.071151
 30
0.0
 10
246.865171
 20
103.018751
 30
0.0
 10
246.865171
 20
99.253424
 30
0.0
  0
LWPOLYLINE
  5
308
100
AcDbEntity
  8
Layer_1
 62
7
100
AcDbPolyline
 90
2
 70
0
 10
230.988955
 20
127.738652
 30
0.0
 10
230.988955
 20
127.738652
 30
0.0
  0
SPLINE
  5
309
100
AcDbEntity
  8
Layer_1
 62
7
100
AcDbSpline
 70
8
 71
3
 72
8
 73
4
 74
0
 40
0
 40
0
 40
0
 40
0
 40
1
 40
1
 40
1
 40
1
 10
240.047436
 20
124.542448
 30
0.0
 10
240.047436
 20
124.235969
 30
0.0
 10
240.011943
 20
123.987518
 30
0.0
 10
239.968159
 20
123.987518
 30
0.0
  0
SPLINE
  5
30a
100
AcDbEntity
  8
Layer_1
 62
7
100
AcDbSpline
 70
8
 71
3
 72
8
 73
4
 74
0
 40
0
 40
0
 40
0
 40
0
 40
1
 40
1
 40
1
 40
1
 10
239.968159
 20
123.987518
 30
0.0
 10
239.924378
 20
123.987518
 30
0.0
 10
239.888883
 20
124.235969
 30
0.0
 10
239.888883
 20
124.542448
 30
0.0
  0
SPLINE
  5
30b
100
AcDbEntity
  8
Layer_1
 62
7
100
AcDbSpline
 70
8
 71
3
 72
8
 73
4
 74
0
 40
0
 40
0
 40
0
 40
0
 40
1
 40
1
 40
1
 40
1
 10
239.888883
 20
124.542448
 30
0.0
 10
239.888883
 20
124.848928
 30
0.0
 10
239.924378
 20
125.097379
 30
0.0
 10
239.968159
 20
125.097379
 30
0.0
  0
SPLINE
  5
30c
100
AcDbEntity
  8
Layer_1
 62
7
100
AcDbSpline
 70
8
 71
3
 72
8
 73
4
 74
0
 40
0
 40
0
 40
0
 40
0
 40
1
 40
1
 40
1
 40
1
 10
239.968159
 20
125.097379
 30
0.0
 10
240.011943
 20
125.097379
 30
0.0
 10
240.047436
 20
124.848928
 30
0.0
 10
240.047436
 20
124.542448
 30
0.0
  0
LWPOLYLINE
  5
30d
100
AcDbEntity
  8
Layer_1
 62
7
100
AcDbPolyline
 90
2
 70
0
 10
246.865171
 20
99.253424
 30
0.0
 10
246.865171
 20
99.253424
 30
0.0
  0
SPLINE
  5
30e
100
AcDbEntity
  8
Layer_1
 62
7
100
AcDbSpline
 70
8
 71
3
 72
8
 73
4
 74
0
 40
0
 40
0
 40
0
 40
0
 40
1
 40
1
 40
1
 40
1
 10
243.377034
 20
124.304617
 30
0.0
 10
243.377034
 20
124.041919
 30
0.0
 10
243.341542
 20
123.828960
 30
0.0
 10
243.297758
 20
123.828960
 30
0.0
  0
SPLINE
  5
30f
100
AcDbEntity
  8
Layer_1
 62
7
100
AcDbSpline
 70
8
 71
3
 72
8
 73
4
 74
0
 40
0
 40
0
 40
0
 40
0
 40
1
 40
1
 40
1
 40
1
 10
243.297758
 20
123.828960
 30
0.0
 10
243.253977
 20
123.828960
 30
0.0
 10
243.218485
 20
124.041919
 30
0.0
 10
243.218485
 20
124.304617
 30
0.0
  0
SPLINE
  5
310
100
AcDbEntity
  8
Layer_1
 62
7
100
AcDbSpline
 70
8
 71
3
 72
8
 73
4
 74
0
 40
0
 40
0
 40
0
 40
0
 40
1
 40
1
 40
1
 40
1
 10
243.218485
 20
124.304617
 30
0.0
 10
243.218485
 20
124.567312
 30
0.0
 10
243.253977
 20
124.780271
 30
0.0
 10
243.297758
 20
124.780271
 30
0.0
  0
SPLINE
  5
311
100
AcDbEntity
  8
Layer_1
 62
7
100
AcDbSpline
 70
8
 71
3
 72
8
 73
4
 74
0
 40
0
 40
0
 40
0
 40
0
 40
1
 40
1
 40
1
 40
1
 10
243.297758
 20
124.780271
 30
0.0
 10
243.341542
 20
124.780271
 30
0.0
 10
243.377034
 20
124.567312
 30
0.0
 10
243.377034
 20
124.304617
 30
0.0
  0
LWPOLYLINE
  5
312
100
AcDbEntity
  8
Layer_1
 62
7
100
AcDbPolyline
 90
2
 70
0
 10
240.047436
 20
124.542448
 30
0.0
 10
240.047436
 20
124.542448
 30
0.0
  0
SPLINE
  5
313
100
AcDbEntity
  8
Layer_1
 62
7
100
AcDbSpline
 70
8
 71
3
 72
8
 73
4
 74
0
 40
0
 40
0
 40
0
 40
0
 40
1
 40
1
 40
1
 40
1
 10
251.621730
 20
125.255929
 30
0.0
 10
251.621730
 20
122.541388
 30
0.0
 10
247.469045
 20
120.340823
 30
0.0
 10
242.346449
 20
120.340823
 30
0.0
  0
SPLINE
  5
314
100
AcDbEntity
  8
Layer_1
 62
7
100
AcDbSpline
 70
8
 71
3
 72
8
 73
4
 74
0
 40
0
 40
0
 40
0
 40
0
 40
1
 40
1
 40
1
 40
1
 10
242.346449
 20
120.340823
 30
0.0
 10
237.223850
 20
120.340823
 30
0.0
 10
233.071168
 20
122.541388
 30
0.0
 10
233.071168
 20
125.255929
 30
0.0
  0
SPLINE
  5
315
100
AcDbEntity
  8
Layer_1
 62
7
100
AcDbSpline
 70
8
 71
3
 72
8
 73
4
 74
0
 40
0
 40
0
 40
0
 40
0
 40
1
 40
1
 40
1
 40
1
 10
233.071168
 20
125.255929
 30
0.0
 10
233.071168
 20
127.970466
 30
0.0
 10
237.223850
 20
130.171035
 30
0.0
 10
242.346449
 20
130.171035
 30
0.0
  0
SPLINE
  5
316
100
AcDbEntity
  8
Layer_1
 62
7
100
AcDbSpline
 70
8
 71
3
 72
8
 73
4
 74
0
 40
0
 40
0
 40
0
 40
0
 40
1
 40
1
 40
1
 40
1
 10
242.346449
 20
130.171035
 30
0.0
 10
247.469045
 20
130.171035
 30
0.0
 10
251.621730
 20
127.970466
 30
0.0
 10
251.621730
 20
125.255929
 30
0.0
  0
LWPOLYLINE
  5
317
100
AcDbEntity
  8
Layer_1
 62
7
100
AcDbPolyline
 90
2
 70
0
 10
243.377034
 20
124.304617
 30
0.0
 10
243.377034
 20
124.304617
 30
0.0
  0
SPLINE
  5
318
100
AcDbEntity
  8
Layer_1
 62
7
100
AcDbSpline
 70
8
 71
3
 72
8
 73
4
 74
0
 40
0
 40
0
 40
0
 40
0
 40
1
 40
1
 40
1
 40
1
 10
253.365790
 20
113.047439
 30
0.0
 10
253.365790
 20
111.909084
 30
0.0
 10
249.497051
 20
110.986265
 30
0.0
 10
244.724719
 20
110.986265
 30
0.0
  0
SPLINE
  5
319
100
AcDbEntity
  8
Layer_1
 62
7
100
AcDbSpline
 70
8
 71
3
 72
8
 73
4
 74
0
 40
0
 40
0
 40
0
 40
0
 40
1
 40
1
 40
1
 40
1
 10
244.724719
 20
110.986265
 30
0.0
 10
239.952383
 20
110.986265
 30
0.0
 10
236.083644
 20
111.909084
 30
0.0
 10
236.083644
 20
113.047439
 30
0.0
  0
SPLINE
  5
31a
100
AcDbEntity
  8
Layer_1
 62
7
100
AcDbSpline
 70
8
 71
3
 72
8
 73
4
 74
0
 40
0
 40
0
 40
0
 40
0
 40
1
 40
1
 40
1
 40
1
 10
236.083644
 20
113.047439
 30
0.0
 10
236.083644
 20
114.185793
 30
0.0
 10
239.952383
 20
115.108612
 30
0.0
 10
244.724719
 20
115.108612
 30
0.0
  0
SPLINE
  5
31b
100
AcDbEntity
  8
Layer_1
 62
7
100
AcDbSpline
 70
8
 71
3
 72
8
 73
4
 74
0
 40
0
 40
0
 40
0
 40
0
 40
1
 40
1
 40
1
 40
1
 10
244.724719
 20
115.108612
 30
0.0
 10
249.497051
 20
115.108612
 30
0.0
 10
253.365790
 20
114.185793
 30
0.0
 10
253.365790
 20
113.047439
 30
0.0
  0
LWPOLYLINE
  5
31c
100
AcDbEntity
  8
Layer_1
 62
7
100
AcDbPolyline
 90
2
 70
0
 10
251.621730
 20
125.255929
 30
0.0
 10
251.621730
 20
125.255929
 30
0.0
  0
SPLINE
  5
31d
100
AcDbEntity
  8
Layer_1
 62
7
100
AcDbSpline
 70
8
 71
3
 72
8
 73
4
 74
0
 40
0
 40
0
 40
0
 40
0
 40
1
 40
1
 40
1
 40
1
 10
241.157306
 20
84.745937
 30
0.0
 10
241.157306
 20
81.374655
 30
0.0
 10
238.282370
 20
78.641694
 30
0.0
 10
234.735957
 20
78.641694
 30
0.0
  0
SPLINE
  5
31e
100
AcDbEntity
  8
Layer_1
 62
7
100
AcDbSpline
 70
8
 71
3
 72
8
 73
4
 74
0
 40
0
 40
0
 40
0
 40
0
 40
1
 40
1
 40
1
 40
1
 10
234.735957
 20
78.641694
 30
0.0
 10
231.189544
 20
78.641694
 30
0.0
 10
228.314608
 20
81.374655
 30
0.0
 10
228.314608
 20
84.745937
 30
0.0
  0
SPLINE
  5
31f
100
AcDbEntity
  8
Layer_1
 62
7
100
AcDbSpline
 70
8
 71
3
 72
8
 73
4
 74
0
 40
0
 40
0
 40
0
 40
0
 40
1
 40
1
 40
1
 40
1
 10
228.314608
 20
84.745937
 30
0.0
 10
228.314608
 20
88.117217
 30
0.0
 10
231.189544
 20
90.850181
 30
0.0
 10
234.735957
 20
90.850181
 30
0.0
  0
SPLINE
  5
320
100
AcDbEntity
  8
Layer_1
 62
7
100
AcDbSpline
 70
8
 71
3
 72
8
 73
4
 74
0
 40
0
 40
0
 40
0
 40
0
 40
1
 40
1
 40
1
 40
1
 10
234.735957
 20
90.850181
 30
0.0
 10
238.282370
 20
90.850181
 30
0.0
 10
241.157306
 20
88.117217
 30
0.0
 10
241.157306
 20
84.745937
 30
0.0
  0
LWPOLYLINE
  5
321
100
AcDbEntity
  8
Layer_1
 62
7
100
AcDbPolyline
 90
2
 70
0
 10
253.365790
 20
113.047439
 30
0.0
 10
253.365790
 20
113.047439
 30
0.0
  0
SPLINE
  5
322
100
AcDbEntity
  8
Layer_1
 62
7
100
AcDbSpline
 70
8
 71
3
 72
8
 73
4
 74
0
 40
0
 40
0
 40
0
 40
0
 40
1
 40
1
 40
1
 40
1
 10
225.619220
 20
80.306483
 30
0.0
 10
225.619220
 20
75.359020
 30
0.0
 10
222.140904
 20
71.348306
 30
0.0
 10
217.850184
 20
71.348306
 30
0.0
  0
SPLINE
  5
323
100
AcDbEntity
  8
Layer_1
 62
7
100
AcDbSpline
 70
8
 71
3
 72
8
 73
4
 74
0
 40
0
 40
0
 40
0
 40
0
 40
1
 40
1
 40
1
 40
1
 10
217.850184
 20
71.348306
 30
0.0
 10
213.559461
 20
71.348306
 30
0.0
 10
210.081145
 20
75.359020
 30
0.0
 10
210.081145
 20
80.306483
 30
0.0
  0
SPLINE
  5
324
100
AcDbEntity
  8
Layer_1
 62
7
100
AcDbSpline
 70
8
 71
3
 72
8
 73
4
 74
0
 40
0
 40
0
 40
0
 40
0
 40
1
 40
1
 40
1
 40
1
 10
210.081145
 20
80.306483
 30
0.0
 10
210.081145
 20
85.253949
 30
0.0
 10
213.559461
 20
89.264662
 30
0.0
 10
217.850184
 20
89.264662
 30
0.0
  0
SPLINE
  5
325
100
AcDbEntity
  8
Layer_1
 62
7
100
AcDbSpline
 70
8
 71
3
 72
8
 73
4
 74
0
 40
0
 40
0
 40
0
 40
0
 40
1
 40
1
 40
1
 40
1
 10
217.850184
 20
89.264662
 30
0.0
 10
222.140904
 20
89.264662
 30
0.0
 10
225.619220
 20
85.253949
 30
0.0
 10
225.619220
 20
80.306483
 30
0.0
  0
LWPOLYLINE
  5
326
100
AcDbEntity
  8
Layer_1
 62
7
100
AcDbPolyline
 90
2
 70
0
 10
241.157306
 20
84.745937
 30
0.0
 10
241.157306
 20
84.745937
 30
0.0
  0
SPLINE
  5
327
100
AcDbEntity
  8
Layer_1
 62
7
100
AcDbSpline
 70
8
 71
3
 72
8
 73
4
 74
0
 40
0
 40
0
 40
0
 40
0
 40
1
 40
1
 40
1
 40
1
 10
225.936322
 20
98.936319
 30
0.0
 10
225.936322
 20
95.083427
 30
0.0
 10
222.919414
 20
91.960040
 30
0.0
 10
219.197868
 20
91.960040
 30
0.0
  0
SPLINE
  5
328
100
AcDbEntity
  8
Layer_1
 62
7
100
AcDbSpline
 70
8
 71
3
 72
8
 73
4
 74
0
 40
0
 40
0
 40
0
 40
0
 40
1
 40
1
 40
1
 40
1
 10
219.197868
 20
91.960040
 30
0.0
 10
215.476325
 20
91.960040
 30
0.0
 10
212.459418
 20
95.083427
 30
0.0
 10
212.459418
 20
98.936319
 30
0.0
  0
SPLINE
  5
329
100
AcDbEntity
  8
Layer_1
 62
7
100
AcDbSpline
 70
8
 71
3
 72
8
 73
4
 74
0
 40
0
 40
0
 40
0
 40
0
 40
1
 40
1
 40
1
 40
1
 10
212.459418
 20
98.936319
 30
0.0
 10
212.459418
 20
102.789214
 30
0.0
 10
215.476325
 20
105.912598
 30
0.0
 10
219.197868
 20
105.912598
 30
0.0
  0
SPLINE
  5
32a
100
AcDbEntity
  8
Layer_1
 62
7
100
AcDbSpline
 70
8
 71
3
 72
8
 73
4
 74
0
 40
0
 40
0
 40
0
 40
0
 40
1
 40
1
 40
1
 40
1
 10
219.197868
 20
105.912598
 30
0.0
 10
222.919414
 20
105.912598
 30
0.0
 10
225.936322
 20
102.789214
 30
0.0
 10
225.936322
 20
98.936319
 30
0.0
  0
LWPOLYLINE
  5
32b
100
AcDbEntity
  8
Layer_1
 62
7
100
AcDbPolyline
 90
2
 70
0
 10
225.619220
 20
80.306483
 30
0.0
 10
225.619220
 20
80.306483
 30
0.0
  0
SPLINE
  5
32c
100
AcDbEntity
  8
Layer_1
 62
7
100
AcDbSpline
 70
8
 71
3
 72
8
 73
4
 74
0
 40
0
 40
0
 40
0
 40
0
 40
1
 40
1
 40
1
 40
1
 10
219.123458
 20
129.141116
 30
0.0
 10
219.123458
 20
125.025525
 30
0.0
 10
215.858118
 20
121.689179
 30
0.0
 10
211.830073
 20
121.689179
 30
0.0
  0
SPLINE
  5
32d
100
AcDbEntity
  8
Layer_1
 62
7
100
AcDbSpline
 70
8
 71
3
 72
8
 73
4
 74
0
 40
0
 40
0
 40
0
 40
0
 40
1
 40
1
 40
1
 40
1
 10
211.830073
 20
121.689179
 30
0.0
 10
207.802057
 20
121.689179
 30
0.0
 10
204.536689
 20
125.025525
 30
0.0
 10
204.536689
 20
129.141116
 30
0.0
  0
SPLINE
  5
32e
100
AcDbEntity
  8
Layer_1
 62
7
100
AcDbSpline
 70
8
 71
3
 72
8
 73
4
 74
0
 40
0
 40
0
 40
0
 40
0
 40
1
 40
1
 40
1
 40
1
 10
204.536689
 20
129.141116
 30
0.0
 10
204.536689
 20
133.256706
 30
0.0
 10
207.802057
 20
136.593049
 30
0.0
 10
211.830073
 20
136.593049
 30
0.0
  0
SPLINE
  5
32f
100
AcDbEntity
  8
Layer_1
 62
7
100
AcDbSpline
 70
8
 71
3
 72
8
 73
4
 74
0
 40
0
 40
0
 40
0
 40
0
 40
1
 40
1
 40
1
 40
1
 10
211.830073
 20
136.593049
 30
0.0
 10
215.858118
 20
136.593049
 30
0.0
 10
219.123458
 20
133.256706
 30
0.0
 10
219.123458
 20
129.141116
 30
0.0
  0
LWPOLYLINE
  5
330
100
AcDbEntity
  8
Layer_1
 62
7
100
AcDbPolyline
 90
2
 70
0
 10
225.936322
 20
98.936319
 30
0.0
 10
225.936322
 20
98.936319
 30
0.0
  0
SPLINE
  5
331
100
AcDbEntity
  8
Layer_1
 62
7
100
AcDbSpline
 70
8
 71
3
 72
8
 73
4
 74
0
 40
0
 40
0
 40
0
 40
0
 40
1
 40
1
 40
1
 40
1
 10
206.593008
 20
82.843314
 30
0.0
 10
206.593008
 20
78.158546
 30
0.0
 10
201.694968
 20
74.360792
 30
0.0
 10
195.652932
 20
74.360792
 30
0.0
  0
SPLINE
  5
332
100
AcDbEntity
  8
Layer_1
 62
7
100
AcDbSpline
 70
8
 71
3
 72
8
 73
4
 74
0
 40
0
 40
0
 40
0
 40
0
 40
1
 40
1
 40
1
 40
1
 10
195.652932
 20
74.360792
 30
0.0
 10
189.610896
 20
74.360792
 30
0.0
 10
184.712858
 20
78.158546
 30
0.0
 10
184.712858
 20
82.843314
 30
0.0
  0
SPLINE
  5
333
100
AcDbEntity
  8
Layer_1
 62
7
100
AcDbSpline
 70
8
 71
3
 72
8
 73
4
 74
0
 40
0
 40
0
 40
0
 40
0
 40
1
 40
1
 40
1
 40
1
 10
184.712858
 20
82.843314
 30
0.0
 10
184.712858
 20
87.528081
 30
0.0
 10
189.610896
 20
91.325835
 30
0.0
 10
195.652932
 20
91.325835
 30
0.0
  0
SPLINE
  5
334
100
AcDbEntity
  8
Layer_1
 62
7
100
AcDbSpline
 70
8
 71
3
 72
8
 73
4
 74
0
 40
0
 40
0
 40
0
 40
0
 40
1
 40
1
 40
1
 40
1
 10
195.652932
 20
91.325835
 30
0.0
 10
201.694968
 20
91.325835
 30
0.0
 10
206.593008
 20
87.528081
 30
0.0
 10
206.593008
 20
82.843314
 30
0.0
  0
LWPOLYLINE
  5
335
100
AcDbEntity
  8
Layer_1
 62
7
100
AcDbPolyline
 90
2
 70
0
 10
219.123458
 20
129.141116
 30
0.0
 10
219.123458
 20
129.141116
 30
0.0
  0
SPLINE
  5
336
100
AcDbEntity
  8
Layer_1
 62
7
100
AcDbSpline
 70
8
 71
3
 72
8
 73
4
 74
0
 40
0
 40
0
 40
0
 40
0
 40
1
 40
1
 40
1
 40
1
 10
186.456927
 20
95.923842
 30
0.0
 10
186.456927
 20
91.720687
 30
0.0
 10
182.836637
 20
88.313356
 30
0.0
 10
178.370783
 20
88.313356
 30
0.0
  0
SPLINE
  5
337
100
AcDbEntity
  8
Layer_1
 62
7
100
AcDbSpline
 70
8
 71
3
 72
8
 73
4
 74
0
 40
0
 40
0
 40
0
 40
0
 40
1
 40
1
 40
1
 40
1
 10
178.370783
 20
88.313356
 30
0.0
 10
173.904930
 20
88.313356
 30
0.0
 10
170.284642
 20
91.720687
 30
0.0
 10
170.284642
 20
95.923842
 30
0.0
  0
SPLINE
  5
338
100
AcDbEntity
  8
Layer_1
 62
7
100
AcDbSpline
 70
8
 71
3
 72
8
 73
4
 74
0
 40
0
 40
0
 40
0
 40
0
 40
1
 40
1
 40
1
 40
1
 10
170.284642
 20
95.923842
 30
0.0
 10
170.284642
 20
100.126998
 30
0.0
 10
173.904930
 20
103.534329
 30
0.0
 10
178.370783
 20
103.534329
 30
0.0
  0
SPLINE
  5
339
100
AcDbEntity
  8
Layer_1
 62
7
100
AcDbSpline
 70
8
 71
3
 72
8
 73
4
 74
0
 40
0
 40
0
 40
0
 40
0
 40
1
 40
1
 40
1
 40
1
 10
178.370783
 20
103.534329
 30
0.0
 10
182.836637
 20
103.534329
 30
0.0
 10
186.456927
 20
100.126998
 30
0.0
 10
186.456927
 20
95.923842
 30
0.0
  0
LWPOLYLINE
  5
33a
100
AcDbEntity
  8
Layer_1
 62
7
100
AcDbPolyline
 90
2
 70
0
 10
206.593008
 20
82.843314
 30
0.0
 10
206.593008
 20
82.843314
 30
0.0
  0
SPLINE
  5
33b
100
AcDbEntity
  8
Layer_1
 62
7
100
AcDbSpline
 70
8
 71
3
 72
8
 73
4
 74
0
 40
0
 40
0
 40
0
 40
0
 40
1
 40
1
 40
1
 40
1
 10
200.726590
 20
100.442567
 30
0.0
 10
200.726590
 20
97.071287
 30
0.0
 10
198.313065
 20
94.338323
 30
0.0
 10
195.335830
 20
94.338323
 30
0.0
  0
SPLINE
  5
33c
100
AcDbEntity
  8
Layer_1
 62
7
100
AcDbSpline
 70
8
 71
3
 72
8
 73
4
 74
0
 40
0
 40
0
 40
0
 40
0
 40
1
 40
1
 40
1
 40
1
 10
195.335830
 20
94.338323
 30
0.0
 10
192.358594
 20
94.338323
 30
0.0
 10
189.945066
 20
97.071287
 30
0.0
 10
189.945066
 20
100.442567
 30
0.0
  0
SPLINE
  5
33d
100
AcDbEntity
  8
Layer_1
 62
7
100
AcDbSpline
 70
8
 71
3
 72
8
 73
4
 74
0
 40
0
 40
0
 40
0
 40
0
 40
1
 40
1
 40
1
 40
1
 10
189.945066
 20
100.442567
 30
0.0
 10
189.945066
 20
103.813847
 30
0.0
 10
192.358594
 20
106.546811
 30
0.0
 10
195.335830
 20
106.546811
 30
0.0
  0
SPLINE
  5
33e
100
AcDbEntity
  8
Layer_1
 62
7
100
AcDbSpline
 70
8
 71
3
 72
8
 73
4
 74
0
 40
0
 40
0
 40
0
 40
0
 40
1
 40
1
 40
1
 40
1
 10
195.335830
 20
106.546811
 30
0.0
 10
198.313065
 20
106.546811
 30
0.0
 10
200.726590
 20
103.813847
 30
0.0
 10
200.726590
 20
100.442567
 30
0.0
  0
LWPOLYLINE
  5
33f
100
AcDbEntity
  8
Layer_1
 62
7
100
AcDbPolyline
 90
2
 70
0
 10
186.456927
 20
95.923842
 30
0.0
 10
186.456927
 20
95.923842
 30
0.0
  0
SPLINE
  5
340
100
AcDbEntity
  8
Layer_1
 62
7
100
AcDbSpline
 70
8
 71
3
 72
8
 73
4
 74
0
 40
0
 40
0
 40
0
 40
0
 40
1
 40
1
 40
1
 40
1
 10
210.239692
 20
98.302129
 30
0.0
 10
210.239692
 20
94.186539
 30
0.0
 10
208.642506
 20
90.850195
 30
0.0
 10
206.672276
 20
90.850195
 30
0.0
  0
SPLINE
  5
341
100
AcDbEntity
  8
Layer_1
 62
7
100
AcDbSpline
 70
8
 71
3
 72
8
 73
4
 74
0
 40
0
 40
0
 40
0
 40
0
 40
1
 40
1
 40
1
 40
1
 10
206.672276
 20
90.850195
 30
0.0
 10
204.702049
 20
90.850195
 30
0.0
 10
203.104863
 20
94.186539
 30
0.0
 10
203.104863
 20
98.302129
 30
0.0
  0
SPLINE
  5
342
100
AcDbEntity
  8
Layer_1
 62
7
100
AcDbSpline
 70
8
 71
3
 72
8
 73
4
 74
0
 40
0
 40
0
 40
0
 40
0
 40
1
 40
1
 40
1
 40
1
 10
203.104863
 20
98.302129
 30
0.0
 10
203.104863
 20
102.417719
 30
0.0
 10
204.702049
 20
105.754066
 30
0.0
 10
206.672276
 20
105.754066
 30
0.0
  0
SPLINE
  5
343
100
AcDbEntity
  8
Layer_1
 62
7
100
AcDbSpline
 70
8
 71
3
 72
8
 73
4
 74
0
 40
0
 40
0
 40
0
 40
0
 40
1
 40
1
 40
1
 40
1
 10
206.672276
 20
105.754066
 30
0.0
 10
208.642506
 20
105.754066
 30
0.0
 10
210.239692
 20
102.417719
 30
0.0
 10
210.239692
 20
98.302129
 30
0.0
  0
LWPOLYLINE
  5
344
100
AcDbEntity
  8
Layer_1
 62
7
100
AcDbPolyline
 90
2
 70
0
 10
200.726590
 20
100.442567
 30
0.0
 10
200.726590
 20
100.442567
 30
0.0
  0
SPLINE
  5
345
100
AcDbEntity
  8
Layer_1
 62
7
100
AcDbSpline
 70
8
 71
3
 72
8
 73
4
 74
0
 40
0
 40
0
 40
0
 40
0
 40
1
 40
1
 40
1
 40
1
 10
202.123463
 20
128.622851
 30
0.0
 10
202.123463
 20
125.032657
 30
0.0
 10
197.402902
 20
122.122226
 30
0.0
 10
191.579782
 20
122.122226
 30
0.0
  0
SPLINE
  5
346
100
AcDbEntity
  8
Layer_1
 62
7
100
AcDbSpline
 70
8
 71
3
 72
8
 73
4
 74
0
 40
0
 40
0
 40
0
 40
0
 40
1
 40
1
 40
1
 40
1
 10
191.579782
 20
122.122226
 30
0.0
 10
185.756663
 20
122.122226
 30
0.0
 10
181.036073
 20
125.032657
 30
0.0
 10
181.036073
 20
128.622851
 30
0.0
  0
SPLINE
  5
347
100
AcDbEntity
  8
Layer_1
 62
7
100
AcDbSpline
 70
8
 71
3
 72
8
 73
4
 74
0
 40
0
 40
0
 40
0
 40
0
 40
1
 40
1
 40
1
 40
1
 10
181.036073
 20
128.622851
 30
0.0
 10
181.036073
 20
132.213048
 30
0.0
 10
185.756663
 20
135.123476
 30
0.0
 10
191.579782
 20
135.123476
 30
0.0
  0
SPLINE
  5
348
100
AcDbEntity
  8
Layer_1
 62
7
100
AcDbSpline
 70
8
 71
3
 72
8
 73
4
 74
0
 40
0
 40
0
 40
0
 40
0
 40
1
 40
1
 40
1
 40
1
 10
191.579782
 20
135.123476
 30
0.0
 10
197.402902
 20
135.123476
 30
0.0
 10
202.123463
 20
132.213048
 30
0.0
 10
202.123463
 20
128.622851
 30
0.0
  0
LWPOLYLINE
  5
349
100
AcDbEntity
  8
Layer_1
 62
7
100
AcDbPolyline
 90
2
 70
0
 10
210.239692
 20
98.302129
 30
0.0
 10
210.239692
 20
98.302129
 30
0.0
  0
SPLINE
  5
34a
100
AcDbEntity
  8
Layer_1
 62
7
100
AcDbSpline
 70
8
 71
3
 72
8
 73
4
 74
0
 40
0
 40
0
 40
0
 40
0
 40
1
 40
1
 40
1
 40
1
 10
178.370780
 20
113.205991
 30
0.0
 10
178.370780
 20
108.740138
 30
0.0
 10
175.531337
 20
105.119850
 30
0.0
 10
172.028708
 20
105.119850
 30
0.0
  0
SPLINE
  5
34b
100
AcDbEntity
  8
Layer_1
 62
7
100
AcDbSpline
 70
8
 71
3
 72
8
 73
4
 74
0
 40
0
 40
0
 40
0
 40
0
 40
1
 40
1
 40
1
 40
1
 10
172.028708
 20
105.119850
 30
0.0
 10
168.526076
 20
105.119850
 30
0.0
 10
165.686636
 20
108.740138
 30
0.0
 10
165.686636
 20
113.205991
 30
0.0
  0
SPLINE
  5
34c
100
AcDbEntity
  8
Layer_1
 62
7
100
AcDbSpline
 70
8
 71
3
 72
8
 73
4
 74
0
 40
0
 40
0
 40
0
 40
0
 40
1
 40
1
 40
1
 40
1
 10
165.686636
 20
113.205991
 30
0.0
 10
165.686636
 20
117.671844
 30
0.0
 10
168.526076
 20
121.292135
 30
0.0
 10
172.028708
 20
121.292135
 30
0.0
  0
SPLINE
  5
34d
100
AcDbEntity
  8
Layer_1
 62
7
100
AcDbSpline
 70
8
 71
3
 72
8
 73
4
 74
0
 40
0
 40
0
 40
0
 40
0
 40
1
 40
1
 40
1
 40
1
 10
172.028708
 20
121.292135
 30
0.0
 10
175.531337
 20
121.292135
 30
0.0
 10
178.370780
 20
117.671844
 30
0.0
 10
178.370780
 20
113.205991
 30
0.0
  0
LWPOLYLINE
  5
34e
100
AcDbEntity
  8
Layer_1
 62
7
100
AcDbPolyline
 90
2
 70
0
 10
202.123463
 20
128.622851
 30
0.0
 10
202.123463
 20
128.622851
 30
0.0
  0
SPLINE
  5
34f
100
AcDbEntity
  8
Layer_1
 62
7
100
AcDbSpline
 70
8
 71
3
 72
8
 73
4
 74
0
 40
0
 40
0
 40
0
 40
0
 40
1
 40
1
 40
1
 40
1
 10
176.626723
 20
130.171038
 30
0.0
 10
176.626723
 20
127.368932
 30
0.0
 10
175.313481
 20
125.097379
 30
0.0
 10
173.693514
 20
125.097379
 30
0.0
  0
SPLINE
  5
350
100
AcDbEntity
  8
Layer_1
 62
7
100
AcDbSpline
 70
8
 71
3
 72
8
 73
4
 74
0
 40
0
 40
0
 40
0
 40
0
 40
1
 40
1
 40
1
 40
1
 10
173.693514
 20
125.097379
 30
0.0
 10
172.073547
 20
125.097379
 30
0.0
 10
170.760305
 20
127.368932
 30
0.0
 10
170.760305
 20
130.171038
 30
0.0
  0
SPLINE
  5
351
100
AcDbEntity
  8
Layer_1
 62
7
100
AcDbSpline
 70
8
 71
3
 72
8
 73
4
 74
0
 40
0
 40
0
 40
0
 40
0
 40
1
 40
1
 40
1
 40
1
 10
170.760305
 20
130.171038
 30
0.0
 10
170.760305
 20
132.973140
 30
0.0
 10
172.073547
 20
135.244696
 30
0.0
 10
173.693514
 20
135.244696
 30
0.0
  0
SPLINE
  5
352
100
AcDbEntity
  8
Layer_1
 62
7
100
AcDbSpline
 70
8
 71
3
 72
8
 73
4
 74
0
 40
0
 40
0
 40
0
 40
0
 40
1
 40
1
 40
1
 40
1
 10
173.693514
 20
135.244696
 30
0.0
 10
175.313481
 20
135.244696
 30
0.0
 10
176.626723
 20
132.973140
 30
0.0
 10
176.626723
 20
130.171038
 30
0.0
  0
LWPOLYLINE
  5
353
100
AcDbEntity
  8
Layer_1
 62
7
100
AcDbPolyline
 90
2
 70
0
 10
178.370780
 20
113.205991
 30
0.0
 10
178.370780
 20
113.205991
 30
0.0
  0
SPLINE
  5
354
100
AcDbEntity
  8
Layer_1
 62
7
100
AcDbSpline
 70
8
 71
3
 72
8
 73
4
 74
0
 40
0
 40
0
 40
0
 40
0
 40
1
 40
1
 40
1
 40
1
 10
192.641728
 20
143.274697
 30
0.0
 10
192.641728
 20
140.034764
 30
0.0
 10
189.731311
 20
137.408279
 30
0.0
 10
186.141106
 20
137.408279
 30
0.0
  0
SPLINE
  5
355
100
AcDbEntity
  8
Layer_1
 62
7
100
AcDbSpline
 70
8
 71
3
 72
8
 73
4
 74
0
 40
0
 40
0
 40
0
 40
0
 40
1
 40
1
 40
1
 40
1
 10
186.141106
 20
137.408279
 30
0.0
 10
182.550929
 20
137.408279
 30
0.0
 10
179.640484
 20
140.034764
 30
0.0
 10
179.640484
 20
143.274697
 30
0.0
  0
SPLINE
  5
356
100
AcDbEntity
  8
Layer_1
 62
7
100
AcDbSpline
 70
8
 71
3
 72
8
 73
4
 74
0
 40
0
 40
0
 40
0
 40
0
 40
1
 40
1
 40
1
 40
1
 10
179.640484
 20
143.274697
 30
0.0
 10
179.640484
 20
146.514631
 30
0.0
 10
182.550929
 20
149.141115
 30
0.0
 10
186.141106
 20
149.141115
 30
0.0
  0
SPLINE
  5
357
100
AcDbEntity
  8
Layer_1
 62
7
100
AcDbSpline
 70
8
 71
3
 72
8
 73
4
 74
0
 40
0
 40
0
 40
0
 40
0
 40
1
 40
1
 40
1
 40
1
 10
186.141106
 20
149.141115
 30
0.0
 10
189.731311
 20
149.141115
 30
0.0
 10
192.641728
 20
146.514631
 30
0.0
 10
192.641728
 20
143.274697
 30
0.0
  0
LWPOLYLINE
  5
358
100
AcDbEntity
  8
Layer_1
 62
7
100
AcDbPolyline
 90
2
 70
0
 10
176.626723
 20
130.171038
 30
0.0
 10
176.626723
 20
130.171038
 30
0.0
  0
SPLINE
  5
359
100
AcDbEntity
  8
Layer_1
 62
7
100
AcDbSpline
 70
8
 71
3
 72
8
 73
4
 74
0
 40
0
 40
0
 40
0
 40
0
 40
1
 40
1
 40
1
 40
1
 10
207.227218
 20
146.184770
 30
0.0
 10
207.227218
 20
140.668129
 30
0.0
 10
204.316790
 20
136.196008
 30
0.0
 10
200.726593
 20
136.196008
 30
0.0
  0
SPLINE
  5
35a
100
AcDbEntity
  8
Layer_1
 62
7
100
AcDbSpline
 70
8
 71
3
 72
8
 73
4
 74
0
 40
0
 40
0
 40
0
 40
0
 40
1
 40
1
 40
1
 40
1
 10
200.726593
 20
136.196008
 30
0.0
 10
197.136399
 20
136.196008
 30
0.0
 10
194.225968
 20
140.668129
 30
0.0
 10
194.225968
 20
146.184770
 30
0.0
  0
SPLINE
  5
35b
100
AcDbEntity
  8
Layer_1
 62
7
100
AcDbSpline
 70
8
 71
3
 72
8
 73
4
 74
0
 40
0
 40
0
 40
0
 40
0
 40
1
 40
1
 40
1
 40
1
 10
194.225968
 20
146.184770
 30
0.0
 10
194.225968
 20
151.701413
 30
0.0
 10
197.136399
 20
156.173534
 30
0.0
 10
200.726593
 20
156.173534
 30
0.0
  0
SPLINE
  5
35c
100
AcDbEntity
  8
Layer_1
 62
7
100
AcDbSpline
 70
8
 71
3
 72
8
 73
4
 74
0
 40
0
 40
0
 40
0
 40
0
 40
1
 40
1
 40
1
 40
1
 10
200.726593
 20
156.173534
 30
0.0
 10
204.316790
 20
156.173534
 30
0.0
 10
207.227218
 20
151.701413
 30
0.0
 10
207.227218
 20
146.184770
 30
0.0
  0
LWPOLYLINE
  5
35d
100
AcDbEntity
  8
Layer_1
 62
7
100
AcDbPolyline
 90
2
 70
0
 10
192.641728
 20
143.274697
 30
0.0
 10
192.641728
 20
143.274697
 30
0.0
  0
SPLINE
  5
35e
100
AcDbEntity
  8
Layer_1
 62
7
100
AcDbSpline
 70
8
 71
3
 72
8
 73
4
 74
0
 40
0
 40
0
 40
0
 40
0
 40
1
 40
1
 40
1
 40
1
 10
228.790254
 20
148.642321
 30
0.0
 10
228.790254
 20
144.307817
 30
0.0
 10
224.637569
 20
140.794006
 30
0.0
 10
219.514973
 20
140.794006
 30
0.0
  0
SPLINE
  5
35f
100
AcDbEntity
  8
Layer_1
 62
7
100
AcDbSpline
 70
8
 71
3
 72
8
 73
4
 74
0
 40
0
 40
0
 40
0
 40
0
 40
1
 40
1
 40
1
 40
1
 10
219.514973
 20
140.794006
 30
0.0
 10
214.392377
 20
140.794006
 30
0.0
 10
210.239692
 20
144.307817
 30
0.0
 10
210.239692
 20
148.642321
 30
0.0
  0
SPLINE
  5
360
100
AcDbEntity
  8
Layer_1
 62
7
100
AcDbSpline
 70
8
 71
3
 72
8
 73
4
 74
0
 40
0
 40
0
 40
0
 40
0
 40
1
 40
1
 40
1
 40
1
 10
210.239692
 20
148.642321
 30
0.0
 10
210.239692
 20
152.976826
 30
0.0
 10
214.392377
 20
156.490636
 30
0.0
 10
219.514973
 20
156.490636
 30
0.0
  0
SPLINE
  5
361
100
AcDbEntity
  8
Layer_1
 62
7
100
AcDbSpline
 70
8
 71
3
 72
8
 73
4
 74
0
 40
0
 40
0
 40
0
 40
0
 40
1
 40
1
 40
1
 40
1
 10
219.514973
 20
156.490636
 30
0.0
 10
224.637569
 20
156.490636
 30
0.0
 10
228.790254
 20
152.976826
 30
0.0
 10
228.790254
 20
148.642321
 30
0.0
  0
LWPOLYLINE
  5
362
100
AcDbEntity
  8
Layer_1
 62
7
100
AcDbPolyline
 90
2
 70
0
 10
207.227218
 20
146.184770
 30
0.0
 10
207.227218
 20
146.184770
 30
0.0
  0
SPLINE
  5
363
100
AcDbEntity
  8
Layer_1
 62
7
100
AcDbSpline
 70
8
 71
3
 72
8
 73
4
 74
0
 40
0
 40
0
 40
0
 40
0
 40
1
 40
1
 40
1
 40
1
 10
243.377031
 20
138.732830
 30
0.0
 10
243.377031
 20
134.879938
 30
0.0
 10
240.502096
 20
131.756551
 30
0.0
 10
236.955683
 20
131.756551
 30
0.0
  0
SPLINE
  5
364
100
AcDbEntity
  8
Layer_1
 62
7
100
AcDbSpline
 70
8
 71
3
 72
8
 73
4
 74
0
 40
0
 40
0
 40
0
 40
0
 40
1
 40
1
 40
1
 40
1
 10
236.955683
 20
131.756551
 30
0.0
 10
233.409270
 20
131.756551
 30
0.0
 10
230.534334
 20
134.879938
 30
0.0
 10
230.534334
 20
138.732830
 30
0.0
  0
SPLINE
  5
365
100
AcDbEntity
  8
Layer_1
 62
7
100
AcDbSpline
 70
8
 71
3
 72
8
 73
4
 74
0
 40
0
 40
0
 40
0
 40
0
 40
1
 40
1
 40
1
 40
1
 10
230.534334
 20
138.732830
 30
0.0
 10
230.534334
 20
142.585725
 30
0.0
 10
233.409270
 20
145.709109
 30
0.0
 10
236.955683
 20
145.709109
 30
0.0
  0
SPLINE
  5
366
100
AcDbEntity
  8
Layer_1
 62
7
100
AcDbSpline
 70
8
 71
3
 72
8
 73
4
 74
0
 40
0
 40
0
 40
0
 40
0
 40
1
 40
1
 40
1
 40
1
 10
236.955683
 20
145.709109
 30
0.0
 10
240.502096
 20
145.709109
 30
0.0
 10
243.377031
 20
142.585725
 30
0.0
 10
243.377031
 20
138.732830
 30
0.0
  0
LWPOLYLINE
  5
367
100
AcDbEntity
  8
Layer_1
 62
7
100
AcDbPolyline
 90
2
 70
0
 10
228.790254
 20
148.642321
 30
0.0
 10
228.790254
 20
148.642321
 30
0.0
  0
SPLINE
  5
368
100
AcDbEntity
  8
Layer_1
 62
7
100
AcDbSpline
 70
8
 71
3
 72
8
 73
4
 74
0
 40
0
 40
0
 40
0
 40
0
 40
1
 40
1
 40
1
 40
1
 10
227.501281
 20
137.220850
 30
0.0
 10
227.501281
 20
136.170063
 30
0.0
 10
225.549178
 20
135.318229
 30
0.0
 10
223.141117
 20
135.318229
 30
0.0
  0
SPLINE
  5
369
100
AcDbEntity
  8
Layer_1
 62
7
100
AcDbSpline
 70
8
 71
3
 72
8
 73
4
 74
0
 40
0
 40
0
 40
0
 40
0
 40
1
 40
1
 40
1
 40
1
 10
223.141117
 20
135.318229
 30
0.0
 10
220.733056
 20
135.318229
 30
0.0
 10
218.780924
 20
136.170063
 30
0.0
 10
218.780924
 20
137.220850
 30
0.0
  0
SPLINE
  5
36a
100
AcDbEntity
  8
Layer_1
 62
7
100
AcDbSpline
 70
8
 71
3
 72
8
 73
4
 74
0
 40
0
 40
0
 40
0
 40
0
 40
1
 40
1
 40
1
 40
1
 10
218.780924
 20
137.220850
 30
0.0
 10
218.780924
 20
138.271639
 30
0.0
 10
220.733056
 20
139.123474
 30
0.0
 10
223.141117
 20
139.123474
 30
0.0
  0
SPLINE
  5
36b
100
AcDbEntity
  8
Layer_1
 62
7
100
AcDbSpline
 70
8
 71
3
 72
8
 73
4
 74
0
 40
0
 40
0
 40
0
 40
0
 40
1
 40
1
 40
1
 40
1
 10
223.141117
 20
139.123474
 30
0.0
 10
225.549178
 20
139.123474
 30
0.0
 10
227.501281
 20
138.271639
 30
0.0
 10
227.501281
 20
137.220850
 30
0.0
  0
LWPOLYLINE
  5
36c
100
AcDbEntity
  8
Layer_1
 62
7
100
AcDbPolyline
 90
2
 70
0
 10
243.377031
 20
138.732830
 30
0.0
 10
243.377031
 20
138.732830
 30
0.0
  0
LWPOLYLINE
  5
36d
100
AcDbEntity
  8
Layer_1
 62
7
100
AcDbPolyline
 90
2
 70
0
 10
227.501281
 20
137.220850
 30
0.0
 10
227.501281
 20
137.220850
 30
0.0
  0
ENDSEC
  0
SECTION
  2
OBJECTS
  0
DICTIONARY
  5
C
330
0
100
AcDbDictionary
  3
ACAD_GROUP
350
D
  3
ACAD_MLINESTYLE
350
17
  0
DICTIONARY
  5
D
330
C
100
AcDbDictionary
  0
DICTIONARY
  5
1A
330
C
100
AcDbDictionary
  0
DICTIONARY
  5
17
330
C
100
AcDbDictionary
  3
STANDARD
350
18
  0
DICTIONARY
  5
19
330
C
100
AcDbDictionary
  0
ENDSEC
  0
EOF
